  0
SECTION
  2
HEADER
  9
$ACADVER
  1
AC1018
  9
$ACADMAINTVER
 70
     0
  9
$DWGCODEPAGE
  3
ANSI_1252
  9
$INSBASE
 10
0.0
 20
0.0
 30
0.0
  9
$EXTMIN
 10
1.000000000000000E+20
 20
1.000000000000000E+20
 30
1.000000000000000E+20
  9
$EXTMAX
 10
-1.000000000000000E+20
 20
-1.000000000000000E+20
 30
-1.000000000000000E+20
  9
$LIMMIN
 10
0.0
 20
0.0
  9
$LIMMAX
 10
12.0
 20
9.0
  9
$ORTHOMODE
 70
     0
  9
$REGENMODE
 70
     1
  9
$FILLMODE
 70
     1
  9
$QTEXTMODE
 70
     0
  9
$MIRRTEXT
 70
     1
  9
$LTSCALE
 40
1.0
  9
$ATTMODE
 70
     1
  9
$TEXTSIZE
 40
0.2
  9
$TRACEWID
 40
0.05
  9
$TEXTSTYLE
  7
Standard
  9
$CLAYER
  8
0
  9
$CELTYPE
  6
ByLayer
  9
$CECOLOR
 62
   256
  9
$CELTSCALE
 40
1.0
  9
$DISPSILH
 70
     0
  9
$DIMSCALE
 40
1.0
  9
$DIMASZ
 40
0.18
  9
$DIMEXO
 40
0.0625
  9
$DIMDLI
 40
0.38
  9
$DIMRND
 40
0.0
  9
$DIMDLE
 40
0.0
  9
$DIMEXE
 40
0.18
  9
$DIMTP
 40
0.0
  9
$DIMTM
 40
0.0
  9
$DIMTXT
 40
0.18
  9
$DIMCEN
 40
0.09
  9
$DIMTSZ
 40
0.0
  9
$DIMTOL
 70
     0
  9
$DIMLIM
 70
     0
  9
$DIMTIH
 70
     1
  9
$DIMTOH
 70
     1
  9
$DIMSE1
 70
     0
  9
$DIMSE2
 70
     0
  9
$DIMTAD
 70
     0
  9
$DIMZIN
 70
     0
  9
$DIMBLK
  1

  9
$DIMASO
 70
     1
  9
$DIMSHO
 70
     1
  9
$DIMPOST
  1

  9
$DIMAPOST
  1

  9
$DIMALT
 70
     0
  9
$DIMALTD
 70
     2
  9
$DIMALTF
 40
25.4
  9
$DIMLFAC
 40
1.0
  9
$DIMTOFL
 70
     0
  9
$DIMTVP
 40
0.0
  9
$DIMTIX
 70
     0
  9
$DIMSOXD
 70
     0
  9
$DIMSAH
 70
     0
  9
$DIMBLK1
  1

  9
$DIMBLK2
  1

  9
$DIMSTYLE
  2
Standard
  9
$DIMCLRD
 70
     0
  9
$DIMCLRE
 70
     0
  9
$DIMCLRT
 70
     0
  9
$DIMTFAC
 40
1.0
  9
$DIMGAP
 40
0.09
  9
$DIMJUST
 70
     0
  9
$DIMSD1
 70
     0
  9
$DIMSD2
 70
     0
  9
$DIMTOLJ
 70
     1
  9
$DIMTZIN
 70
     0
  9
$DIMALTZ
 70
     0
  9
$DIMALTTZ
 70
     0
  9
$DIMUPT
 70
     0
  9
$DIMDEC
 70
     4
  9
$DIMTDEC
 70
     4
  9
$DIMALTU
 70
     2
  9
$DIMALTTD
 70
     2
  9
$DIMTXSTY
  7
Standard
  9
$DIMAUNIT
 70
     0
  9
$DIMADEC
 70
     0
  9
$DIMALTRND
 40
0.0
  9
$DIMAZIN
 70
     0
  9
$DIMDSEP
 70
    46
  9
$DIMATFIT
 70
     3
  9
$DIMFRAC
 70
     0
  9
$DIMLDRBLK
  1

  9
$DIMLUNIT
 70
     2
  9
$DIMLWD
 70
    -2
  9
$DIMLWE
 70
    -2
  9
$DIMTMOVE
 70
     0
  9
$LUNITS
 70
     2
  9
$LUPREC
 70
     4
  9
$SKETCHINC
 40
0.1
  9
$FILLETRAD
 40
0.5
  9
$AUNITS
 70
     0
  9
$AUPREC
 70
     0
  9
$MENU
  1
.
  9
$ELEVATION
 40
0.0
  9
$PELEVATION
 40
0.0
  9
$THICKNESS
 40
0.0
  9
$LIMCHECK
 70
     0
  9
$CHAMFERA
 40
0.0
  9
$CHAMFERB
 40
0.0
  9
$CHAMFERC
 40
0.0
  9
$CHAMFERD
 40
0.0
  9
$SKPOLY
 70
     0
  9
$TDCREATE
 40
2460444.759271528
  9
$TDUCREATE
 40
2460445.050938195
  9
$TDUPDATE
 40
2460444.759271644
  9
$TDUUPDATE
 40
2460445.05093831
  9
$TDINDWG
 40
0.0000000116
  9
$TDUSRTIMER
 40
0.0000000116
  9
$USRTIMER
 70
     1
  9
$ANGBASE
 50
0.0
  9
$ANGDIR
 70
     0
  9
$PDMODE
 70
     0
  9
$PDSIZE
 40
0.0
  9
$PLINEWID
 40
0.0
  9
$SPLFRAME
 70
     0
  9
$SPLINETYPE
 70
     6
  9
$SPLINESEGS
 70
     8
  9
$HANDSEED
  5
183
  9
$SURFTAB1
 70
     6
  9
$SURFTAB2
 70
     6
  9
$SURFTYPE
 70
     6
  9
$SURFU
 70
     6
  9
$SURFV
 70
     6
  9
$UCSBASE
  2

  9
$UCSNAME
  2

  9
$UCSORG
 10
0.0
 20
0.0
 30
0.0
  9
$UCSXDIR
 10
1.0
 20
0.0
 30
0.0
  9
$UCSYDIR
 10
0.0
 20
1.0
 30
0.0
  9
$UCSORTHOREF
  2

  9
$UCSORTHOVIEW
 70
     0
  9
$UCSORGTOP
 10
0.0
 20
0.0
 30
0.0
  9
$UCSORGBOTTOM
 10
0.0
 20
0.0
 30
0.0
  9
$UCSORGLEFT
 10
0.0
 20
0.0
 30
0.0
  9
$UCSORGRIGHT
 10
0.0
 20
0.0
 30
0.0
  9
$UCSORGFRONT
 10
0.0
 20
0.0
 30
0.0
  9
$UCSORGBACK
 10
0.0
 20
0.0
 30
0.0
  9
$PUCSBASE
  2

  9
$PUCSNAME
  2

  9
$PUCSORG
 10
0.0
 20
0.0
 30
0.0
  9
$PUCSXDIR
 10
1.0
 20
0.0
 30
0.0
  9
$PUCSYDIR
 10
0.0
 20
1.0
 30
0.0
  9
$PUCSORTHOREF
  2

  9
$PUCSORTHOVIEW
 70
     0
  9
$PUCSORGTOP
 10
0.0
 20
0.0
 30
0.0
  9
$PUCSORGBOTTOM
 10
0.0
 20
0.0
 30
0.0
  9
$PUCSORGLEFT
 10
0.0
 20
0.0
 30
0.0
  9
$PUCSORGRIGHT
 10
0.0
 20
0.0
 30
0.0
  9
$PUCSORGFRONT
 10
0.0
 20
0.0
 30
0.0
  9
$PUCSORGBACK
 10
0.0
 20
0.0
 30
0.0
  9
$USERI1
 70
     0
  9
$USERI2
 70
     0
  9
$USERI3
 70
     0
  9
$USERI4
 70
     0
  9
$USERI5
 70
     0
  9
$USERR1
 40
0.0
  9
$USERR2
 40
0.0
  9
$USERR3
 40
0.0
  9
$USERR4
 40
0.0
  9
$USERR5
 40
0.0
  9
$WORLDVIEW
 70
     1
  9
$SHADEDGE
 70
     3
  9
$SHADEDIF
 70
    70
  9
$TILEMODE
 70
     1
  9
$MAXACTVP
 70
    64
  9
$PINSBASE
 10
0.0
 20
0.0
 30
0.0
  9
$PLIMCHECK
 70
     0
  9
$PEXTMIN
 10
1.000000000000000E+20
 20
1.000000000000000E+20
 30
1.000000000000000E+20
  9
$PEXTMAX
 10
-1.000000000000000E+20
 20
-1.000000000000000E+20
 30
-1.000000000000000E+20
  9
$PLIMMIN
 10
0.0
 20
0.0
  9
$PLIMMAX
 10
12.0
 20
9.0
  9
$UNITMODE
 70
     0
  9
$VISRETAIN
 70
     1
  9
$PLINEGEN
 70
     0
  9
$PSLTSCALE
 70
     1
  9
$TREEDEPTH
 70
  3020
  9
$CMLSTYLE
  2
Standard
  9
$CMLJUST
 70
     0
  9
$CMLSCALE
 40
1.0
  9
$PROXYGRAPHICS
 70
     1
  9
$MEASUREMENT
 70
     0
  9
$CELWEIGHT
370
    -1
  9
$ENDCAPS
280
     0
  9
$JOINSTYLE
280
     0
  9
$LWDISPLAY
290
     0
  9
$INSUNITS
 70
    13
  9
$HYPERLINKBASE
  1

  9
$STYLESHEET
  1

  9
$XEDIT
290
     1
  9
$CEPSNTYPE
380
     0
  9
$PSTYLEMODE
290
     1
  9
$FINGERPRINTGUID
  2
{D300107B-CE27-4C20-A576-9222E9010F2D}
  9
$VERSIONGUID
  2
{FAEB1C32-E019-11D5-929B-00C0DF256EC4}
  9
$EXTNAMES
290
     1
  9
$PSVPSCALE
 40
0.0
  9
$OLESTARTUP
290
     0
  9
$SORTENTS
280
   127
  9
$INDEXCTL
280
     0
  9
$HIDETEXT
280
     1
  9
$XCLIPFRAME
290
     0
  9
$HALOGAP
280
     0
  9
$OBSCOLOR
 70
   257
  9
$OBSLTYPE
280
     0
  9
$INTERSECTIONDISPLAY
280
     0
  9
$INTERSECTIONCOLOR
 70
   257
  9
$DIMASSOC
280
     2
  9
$PROJECTNAME
  1

  0
ENDSEC
  0
SECTION
  2
CLASSES
  0
CLASS
  1
ACDBDICTIONARYWDFLT
  2
AcDbDictionaryWithDefault
  3
ObjectDBX Classes
 90
        0
 91
        3
280
     0
281
     0
  0
CLASS
  1
VISUALSTYLE
  2
AcDbVisualStyle
  3
ObjectDBX Classes
 90
     4095
 91
        3
280
     0
281
     0
  0
CLASS
  1
MATERIAL
  2
AcDbMaterial
  3
ObjectDBX Classes
 90
     1153
 91
        3
280
     0
281
     0
  0
CLASS
  1
SCALE
  2
AcDbScale
  3
ObjectDBX Classes
 90
     1153
 91
        3
280
     0
281
     0
  0
CLASS
  1
TABLESTYLE
  2
AcDbTableStyle
  3
ObjectDBX Classes
 90
     4095
 91
        3
280
     0
281
     0
  0
CLASS
  1
MLEADERSTYLE
  2
AcDbMLeaderStyle
  3
ACDB_MLEADERSTYLE_CLASS
 90
     4095
 91
        3
280
     0
281
     0
  0
CLASS
  1
SUN
  2
AcDbSun
  3
SCENEOE
 90
     1153
 91
        3
280
     0
281
     0
  0
CLASS
  1
DICTIONARYVAR
  2
AcDbDictionaryVar
  3
ObjectDBX Classes
 90
        0
 91
        3
280
     0
281
     0
  0
CLASS
  1
CELLSTYLEMAP
  2
AcDbCellStyleMap
  3
ObjectDBX Classes
 90
     1152
 91
        3
280
     0
281
     0
  0
ENDSEC
  0
SECTION
  2
TABLES
  0
TABLE
  2
VPORT
  5
8
102
{ACAD_XDICTIONARY
360
13C
102
}
330
0
100
AcDbSymbolTable
 70
     1
  0
VPORT
  5
29
330
8
100
AcDbSymbolTableRecord
100
AcDbViewportTableRecord
  2
*Active
 70
     0
 10
0.0
 20
0.0
 11
1.0
 21
1.0
 12
10.42990654205607
 22
4.5
 13
0.0
 23
0.0
 14
0.5
 24
0.5
 15
0.5
 25
0.5
 16
0.0
 26
0.0
 36
1.0
 17
0.0
 27
0.0
 37
0.0
 40
9.0
 41
1.972972972850329
 42
50.0
 43
0.0
 44
0.0
 50
0.0
 51
0.0
 71
     0
 72
   100
 73
     1
 74
     3
 75
     0
 76
     0
 77
     0
 78
     0
281
     0
 65
     1
110
0.0
120
0.0
130
0.0
111
1.0
121
0.0
131
0.0
112
0.0
122
1.0
132
0.0
 79
     0
146
0.0
  0
ENDTAB
  0
TABLE
  2
LTYPE
  5
5
330
0
100
AcDbSymbolTable
 70
     1
  0
LTYPE
  5
14
330
5
100
AcDbSymbolTableRecord
100
AcDbLinetypeTableRecord
  2
ByBlock
 70
     0
  3

 72
    65
 73
     0
 40
0.0
  0
LTYPE
  5
15
330
5
100
AcDbSymbolTableRecord
100
AcDbLinetypeTableRecord
  2
ByLayer
 70
     0
  3

 72
    65
 73
     0
 40
0.0
  0
LTYPE
  5
16
330
5
100
AcDbSymbolTableRecord
100
AcDbLinetypeTableRecord
  2
Continuous
 70
     0
  3
Solid line
 72
    65
 73
     0
 40
0.0
  0
ENDTAB
  0
TABLE
  2
LAYER
  5
2
330
0
100
AcDbSymbolTable
 70
    14
  0
LAYER
  5
10
330
2
100
AcDbSymbolTableRecord
100
AcDbLayerTableRecord
  2
0
 70
     0
 62
     7
  6
Continuous
370
    -3
390
F
  0
LAYER
  5
72
330
2
100
AcDbSymbolTableRecord
100
AcDbLayerTableRecord
  2
MET1
 70
     0
 62
   136
420
    32896
  6
Continuous
370
    -3
390
F
  0
LAYER
  5
85
330
2
100
AcDbSymbolTableRecord
100
AcDbLayerTableRecord
  2
DM_STR
 70
     0
 62
   136
420
    32896
  6
Continuous
370
    -3
390
F
  0
LAYER
  5
87
330
2
100
AcDbSymbolTableRecord
100
AcDbLayerTableRecord
  2
VIA3
 70
     0
 62
     6
420
 16711935
  6
Continuous
370
    -3
390
F
  0
LAYER
  5
98
330
2
100
AcDbSymbolTableRecord
100
AcDbLayerTableRecord
  2
STREET
 70
     0
 62
     5
420
      255
  6
Continuous
370
    -3
390
F
  0
LAYER
  5
9D
330
2
100
AcDbSymbolTableRecord
100
AcDbLayerTableRecord
  2
PROTECT
 70
     0
 62
     1
420
 16711680
  6
Continuous
370
    -3
390
F
  0
LAYER
  5
AD
330
2
100
AcDbSymbolTableRecord
100
AcDbLayerTableRecord
  2
VIA1
 70
     0
 62
   176
420
      128
  6
Continuous
370
    -3
390
F
  0
LAYER
  5
E7
330
2
100
AcDbSymbolTableRecord
100
AcDbLayerTableRecord
  2
DM_Label
 70
     0
 62
     3
420
    65280
  6
Continuous
370
    -3
390
F
  0
LAYER
  5
FC
330
2
100
AcDbSymbolTableRecord
100
AcDbLayerTableRecord
  2
DM_RFPAD
 70
     0
 62
     2
420
 16776960
  6
Continuous
370
    -3
390
F
  0
LAYER
  5
108
330
2
100
AcDbSymbolTableRecord
100
AcDbLayerTableRecord
  2
DM_BondPAD
 70
     0
 62
     5
420
      255
  6
Continuous
370
    -3
390
F
  0
LAYER
  5
114
330
2
100
AcDbSymbolTableRecord
100
AcDbLayerTableRecord
  2
noDRC
 70
     0
 62
    56
420
  8421376
  6
Continuous
370
    -3
390
F
  0
LAYER
  5
116
330
2
100
AcDbSymbolTableRecord
100
AcDbLayerTableRecord
  2
BACKVIA
 70
     0
 62
     3
420
    65280
  6
Continuous
370
    -3
390
F
  0
LAYER
  5
11D
330
2
100
AcDbSymbolTableRecord
100
AcDbLayerTableRecord
  2
MET2
 70
     0
 62
    56
420
  8421376
  6
Continuous
370
    -3
390
F
  0
LAYER
  5
12B
330
2
100
AcDbSymbolTableRecord
100
AcDbLayerTableRecord
  2
VIA2
 70
     0
 62
   216
420
  8388736
  6
Continuous
370
    -3
390
F
  0
ENDTAB
  0
TABLE
  2
STYLE
  5
3
330
0
100
AcDbSymbolTable
 70
     2
  0
STYLE
  5
11
330
3
100
AcDbSymbolTableRecord
100
AcDbTextStyleTableRecord
  2
Standard
 70
     0
 40
0.0
 41
1.0
 50
0.0
 71
     0
 42
0.2
  3
txt
  4

  0
STYLE
  5
78
330
3
100
AcDbSymbolTableRecord
100
AcDbTextStyleTableRecord
  2
Arial For CAE
 70
     0
 40
0.2
 41
1.0
 50
0.0
 71
     0
 42
0.2
  3

  4

1001
ACAD
1000
Arial
1071
        0
  0
ENDTAB
  0
TABLE
  2
VIEW
  5
6
330
0
100
AcDbSymbolTable
 70
     0
  0
ENDTAB
  0
TABLE
  2
UCS
  5
7
330
0
100
AcDbSymbolTable
 70
     0
  0
ENDTAB
  0
TABLE
  2
APPID
  5
9
330
0
100
AcDbSymbolTable
 70
     2
  0
APPID
  5
12
330
9
100
AcDbSymbolTableRecord
100
AcDbRegAppTableRecord
  2
ACAD
 70
     0
  0
APPID
  5
17B
330
9
100
AcDbSymbolTableRecord
100
AcDbRegAppTableRecord
  2
ACAD_MLEADERVER
 70
     0
  0
ENDTAB
  0
TABLE
  2
DIMSTYLE
  5
A
330
0
100
AcDbSymbolTable
 70
     1
100
AcDbDimStyleTable
  0
DIMSTYLE
105
27
330
A
100
AcDbSymbolTableRecord
100
AcDbDimStyleTableRecord
  2
Standard
 70
     0
178
     0
340
11
  0
ENDTAB
  0
TABLE
  2
BLOCK_RECORD
  5
1
330
0
100
AcDbSymbolTable
 70
     3
  0
BLOCK_RECORD
  5
1F
330
1
100
AcDbSymbolTableRecord
100
AcDbBlockTableRecord
  2
*Model_Space
340
22
  0
BLOCK_RECORD
  5
1B
330
1
100
AcDbSymbolTableRecord
100
AcDbBlockTableRecord
  2
*Paper_Space
340
1E
  0
BLOCK_RECORD
  5
23
330
1
100
AcDbSymbolTableRecord
100
AcDbBlockTableRecord
  2
*Paper_Space0
340
26
  0
BLOCK_RECORD
  5
6E
330
1
100
AcDbSymbolTableRecord
100
AcDbBlockTableRecord
  2
MMD029T_ads_rflib__DIMLIN__layout_DL2_
340
0
102
{BLKREFS
331
83
102
}
  0
BLOCK_RECORD
  5
79
330
1
100
AcDbSymbolTableRecord
100
AcDbBlockTableRecord
  2
MMD029T_ads_rflib__DIMLIN__layout_DL1_
340
0
102
{BLKREFS
331
82
102
}
  0
ENDTAB
  0
ENDSEC
  0
SECTION
  2
BLOCKS
  0
BLOCK
  5
20
330
1F
100
AcDbEntity
  8
0
100
AcDbBlockBegin
  2
*Model_Space
 70
     0
 10
0.0
 20
0.0
 30
0.0
  3
*Model_Space
  1

  0
ENDBLK
  5
21
330
1F
100
AcDbEntity
  8
0
100
AcDbBlockEnd
  0
BLOCK
  5
1C
330
1B
100
AcDbEntity
 67
     1
  8
0
100
AcDbBlockBegin
  2
*Paper_Space
 70
     0
 10
0.0
 20
0.0
 30
0.0
  3
*Paper_Space
  1

  0
ENDBLK
  5
1D
330
1B
100
AcDbEntity
 67
     1
  8
0
100
AcDbBlockEnd
  0
BLOCK
  5
24
330
23
100
AcDbEntity
  8
0
100
AcDbBlockBegin
  2
*Paper_Space0
 70
     0
 10
0.0
 20
0.0
 30
0.0
  3
*Paper_Space0
  1

  0
ENDBLK
  5
25
330
23
100
AcDbEntity
  8
0
100
AcDbBlockEnd
  0
BLOCK
  5
6F
330
6E
100
AcDbEntity
  8
0
100
AcDbBlockBegin
  2
MMD029T_ads_rflib__DIMLIN__layout_DL2_
 70
     0
 10
0.0
 20
0.0
 30
0.0
  3
MMD029T_ads_rflib__DIMLIN__layout_DL2_
  1

  0
LWPOLYLINE
  5
71
330
6E
100
AcDbEntity
  8
MET1
100
AcDbPolyline
 90
        2
 70
     0
 43
0.0
 10
-981.0
 20
4.0
 10
981.0
 20
4.0
  0
LWPOLYLINE
  5
73
330
6E
100
AcDbEntity
  8
MET1
100
AcDbPolyline
 90
        2
 70
     0
 43
0.0
 10
-985.0
 20
0.0
 10
-985.0
 20
6.0
  0
LWPOLYLINE
  5
74
330
6E
100
AcDbEntity
  8
MET1
100
AcDbPolyline
 90
        2
 70
     0
 43
0.0
 10
985.0
 20
0.0
 10
985.0
 20
6.0
  0
LWPOLYLINE
  5
75
330
6E
100
AcDbEntity
  8
MET1
100
AcDbPolyline
 90
        3
 70
     1
 43
0.0
 10
-985.0
 20
4.0
 10
-981.0
 20
3.3
 10
-981.0
 20
4.7
  0
LWPOLYLINE
  5
76
330
6E
100
AcDbEntity
  8
MET1
100
AcDbPolyline
 90
        3
 70
     1
 43
0.0
 10
985.0
 20
4.0
 10
981.0
 20
3.3
 10
981.0
 20
4.7
  0
MTEXT
  5
77
330
6E
100
AcDbEntity
  8
MET1
100
AcDbMText
 10
0.0
 20
6.0
 30
0.0
 40
35.791015625
 41
0.0
 71
     8
 72
     1
  1
1970.000 um
  7
Arial For CAE
 73
     2
 44
1.0
  0
ENDBLK
  5
70
330
6E
100
AcDbEntity
  8
0
100
AcDbBlockEnd
  0
BLOCK
  5
7A
330
79
100
AcDbEntity
  8
0
100
AcDbBlockBegin
  2
MMD029T_ads_rflib__DIMLIN__layout_DL1_
 70
     0
 10
0.0
 20
0.0
 30
0.0
  3
MMD029T_ads_rflib__DIMLIN__layout_DL1_
  1

  0
LWPOLYLINE
  5
7C
330
79
100
AcDbEntity
  8
MET1
100
AcDbPolyline
 90
        2
 70
     0
 43
0.0
 10
-519.5
 20
4.0
 10
519.5
 20
4.0
  0
LWPOLYLINE
  5
7D
330
79
100
AcDbEntity
  8
MET1
100
AcDbPolyline
 90
        2
 70
     0
 43
0.0
 10
-523.5
 20
0.0
 10
-523.5
 20
6.0
  0
LWPOLYLINE
  5
7E
330
79
100
AcDbEntity
  8
MET1
100
AcDbPolyline
 90
        2
 70
     0
 43
0.0
 10
523.5
 20
0.0
 10
523.5
 20
6.0
  0
LWPOLYLINE
  5
7F
330
79
100
AcDbEntity
  8
MET1
100
AcDbPolyline
 90
        3
 70
     1
 43
0.0
 10
-523.5
 20
4.0
 10
-519.5
 20
3.3
 10
-519.5
 20
4.7
  0
LWPOLYLINE
  5
80
330
79
100
AcDbEntity
  8
MET1
100
AcDbPolyline
 90
        3
 70
     1
 43
0.0
 10
523.5
 20
4.0
 10
519.5
 20
3.3
 10
519.5
 20
4.7
  0
MTEXT
  5
81
330
79
100
AcDbEntity
  8
MET1
100
AcDbMText
 10
0.0
 20
2.0
 30
0.0
 40
35.791015625
 41
0.0
 71
     2
 72
     1
  1
1047.000 um
  7
Arial For CAE
 73
     2
 44
1.0
  0
ENDBLK
  5
7B
330
79
100
AcDbEntity
  8
0
100
AcDbBlockEnd
  0
ENDSEC
  0
SECTION
  2
ENTITIES
  0
INSERT
  5
82
330
1F
100
AcDbEntity
  8
0
100
AcDbBlockReference
  2
MMD029T_ads_rflib__DIMLIN__layout_DL1_
 10
564.5
 20
-447.0
 30
0.0
  0
INSERT
  5
83
330
1F
100
AcDbEntity
  8
0
100
AcDbBlockReference
  2
MMD029T_ads_rflib__DIMLIN__layout_DL2_
 10
1088.0
 20
538.0
 30
0.0
 50
270.0
  0
LWPOLYLINE
  5
84
330
1F
100
AcDbEntity
  8
DM_STR
100
AcDbPolyline
 90
       10
 70
     1
 43
0.0
 10
26.0
 20
-462.0
 10
1103.0
 20
-462.0
 10
1103.0
 20
1538.0
 10
56.0
 20
1538.0
 10
56.0
 20
1508.0
 10
1073.0
 20
1508.0
 10
1073.0
 20
-432.0
 10
56.0
 20
-432.0
 10
56.0
 20
1538.0
 10
26.0
 20
1538.0
  0
LWPOLYLINE
  5
86
330
1F
100
AcDbEntity
  8
VIA3
100
AcDbPolyline
 90
        4
 70
     1
 43
0.0
 10
1062.0
 20
-421.0
 10
1062.0
 20
1497.0
 10
1114.0
 20
1497.0
 10
1114.0
 20
-421.0
  0
LWPOLYLINE
  5
88
330
1F
100
AcDbEntity
  8
VIA3
100
AcDbPolyline
 90
        4
 70
     1
 43
0.0
 10
15.0
 20
-473.0
 10
15.0
 20
-421.0
 10
1114.0
 20
-421.0
 10
1114.0
 20
-473.0
  0
LWPOLYLINE
  5
89
330
1F
100
AcDbEntity
  8
VIA3
100
AcDbPolyline
 90
        4
 70
     1
 43
0.0
 10
15.0
 20
-421.0
 10
15.0
 20
1497.0
 10
67.0
 20
1497.0
 10
67.0
 20
-421.0
  0
LWPOLYLINE
  5
8A
330
1F
100
AcDbEntity
  8
VIA3
100
AcDbPolyline
 90
        4
 70
     1
 43
0.0
 10
15.0
 20
1497.0
 10
15.0
 20
1549.0
 10
1114.0
 20
1549.0
 10
1114.0
 20
1497.0
  0
LWPOLYLINE
  5
8B
330
1F
100
AcDbEntity
  8
VIA3
100
AcDbPolyline
 90
        4
 70
     1
 43
0.0
 10
936.4
 20
-243.832
 10
936.4
 20
-144.832
 10
1035.4
 20
-144.832
 10
1035.4
 20
-243.832
  0
LWPOLYLINE
  5
8C
330
1F
100
AcDbEntity
  8
VIA3
100
AcDbPolyline
 90
        4
 70
     1
 43
0.0
 10
177.8
 20
1371.832
 10
177.8
 20
1470.832
 10
276.8
 20
1470.832
 10
276.8
 20
1371.832
  0
LWPOLYLINE
  5
8D
330
1F
100
AcDbEntity
  8
VIA3
100
AcDbPolyline
 90
        4
 70
     1
 43
0.0
 10
92.0
 20
638.5
 10
92.0
 20
737.5
 10
191.0
 20
737.5
 10
191.0
 20
638.5
  0
LWPOLYLINE
  5
8E
330
1F
100
AcDbEntity
  8
VIA3
100
AcDbPolyline
 90
        4
 70
     1
 43
0.0
 10
177.8
 20
-394.832
 10
177.8
 20
-295.832
 10
276.8
 20
-295.832
 10
276.8
 20
-394.832
  0
LWPOLYLINE
  5
8F
330
1F
100
AcDbEntity
  8
VIA3
100
AcDbPolyline
 90
        4
 70
     1
 43
0.0
 10
92.0
 20
338.5
 10
92.0
 20
437.5
 10
191.0
 20
437.5
 10
191.0
 20
338.5
  0
LWPOLYLINE
  5
90
330
1F
100
AcDbEntity
  8
VIA3
100
AcDbPolyline
 90
        4
 70
     1
 43
0.0
 10
936.4
 20
1220.832
 10
936.4
 20
1319.832
 10
1035.4
 20
1319.832
 10
1035.4
 20
1220.832
  0
LWPOLYLINE
  5
91
330
1F
100
AcDbEntity
  8
VIA3
100
AcDbPolyline
 90
        4
 70
     1
 43
0.0
 10
107.6
 20
756.5
 10
107.6
 20
839.9
 10
191.0
 20
839.9
 10
191.0
 20
756.5
  0
LWPOLYLINE
  5
92
330
1F
100
AcDbEntity
  8
VIA3
100
AcDbPolyline
 90
        4
 70
     1
 43
0.0
 10
107.6
 20
236.1
 10
107.6
 20
319.5
 10
191.0
 20
319.5
 10
191.0
 20
236.1
  0
LWPOLYLINE
  5
93
330
1F
100
AcDbEntity
  8
VIA3
100
AcDbPolyline
 90
        4
 70
     1
 43
0.0
 10
936.4
 20
1118.432
 10
936.4
 20
1201.832
 10
1019.8
 20
1201.832
 10
1019.8
 20
1118.432
  0
LWPOLYLINE
  5
94
330
1F
100
AcDbEntity
  8
VIA3
100
AcDbPolyline
 90
        4
 70
     1
 43
0.0
 10
936.4
 20
-125.832
 10
936.4
 20
-42.432
 10
1019.8
 20
-42.432
 10
1019.8
 20
-125.832
  0
LWPOLYLINE
  5
95
330
1F
100
AcDbEntity
  8
VIA3
100
AcDbPolyline
 90
        4
 70
     1
 43
0.0
 10
193.4
 20
1269.432
 10
193.4
 20
1352.832
 10
276.8
 20
1352.832
 10
276.8
 20
1269.432
  0
LWPOLYLINE
  5
96
330
1F
100
AcDbEntity
  8
VIA3
100
AcDbPolyline
 90
        4
 70
     1
 43
0.0
 10
193.4
 20
-276.832
 10
193.4
 20
-193.432
 10
276.8
 20
-193.432
 10
276.8
 20
-276.832
  0
LWPOLYLINE
  5
97
330
1F
100
AcDbEntity
  8
STREET
100
AcDbPolyline
 90
        4
 70
     1
 43
0.0
 10
1073.0
 20
-432.0
 10
1073.0
 20
1508.0
 10
1103.0
 20
1508.0
 10
1103.0
 20
-432.0
  0
LWPOLYLINE
  5
99
330
1F
100
AcDbEntity
  8
STREET
100
AcDbPolyline
 90
        4
 70
     1
 43
0.0
 10
26.0
 20
1508.0
 10
26.0
 20
1538.0
 10
1103.0
 20
1538.0
 10
1103.0
 20
1508.0
  0
LWPOLYLINE
  5
9A
330
1F
100
AcDbEntity
  8
STREET
100
AcDbPolyline
 90
        4
 70
     1
 43
0.0
 10
26.0
 20
-462.0
 10
26.0
 20
-432.0
 10
1103.0
 20
-432.0
 10
1103.0
 20
-462.0
  0
LWPOLYLINE
  5
9B
330
1F
100
AcDbEntity
  8
STREET
100
AcDbPolyline
 90
        4
 70
     1
 43
0.0
 10
26.0
 20
-432.0
 10
26.0
 20
1508.0
 10
56.0
 20
1508.0
 10
56.0
 20
-432.0
  0
LWPOLYLINE
  5
9C
330
1F
100
AcDbEntity
  8
PROTECT
100
AcDbPolyline
 90
        4
 70
     1
 43
0.0
 10
1068.0
 20
-427.0
 10
1068.0
 20
1503.0
 10
1108.0
 20
1503.0
 10
1108.0
 20
-427.0
  0
LWPOLYLINE
  5
9E
330
1F
100
AcDbEntity
  8
PROTECT
100
AcDbPolyline
 90
        4
 70
     1
 43
0.0
 10
21.0
 20
-427.0
 10
21.0
 20
1503.0
 10
61.0
 20
1503.0
 10
61.0
 20
-427.0
  0
LWPOLYLINE
  5
9F
330
1F
100
AcDbEntity
  8
PROTECT
100
AcDbPolyline
 90
        4
 70
     1
 43
0.0
 10
21.0
 20
1503.0
 10
21.0
 20
1543.0
 10
1108.0
 20
1543.0
 10
1108.0
 20
1503.0
  0
LWPOLYLINE
  5
A0
330
1F
100
AcDbEntity
  8
PROTECT
100
AcDbPolyline
 90
        4
 70
     1
 43
0.0
 10
21.0
 20
-467.0
 10
21.0
 20
-427.0
 10
1108.0
 20
-427.0
 10
1108.0
 20
-467.0
  0
LWPOLYLINE
  5
A1
330
1F
100
AcDbEntity
  8
PROTECT
100
AcDbPolyline
 90
        4
 70
     1
 43
0.0
 10
938.9
 20
-390.332
 10
938.9
 20
-298.332
 10
1030.9
 20
-298.332
 10
1030.9
 20
-390.332
  0
LWPOLYLINE
  5
A2
330
1F
100
AcDbEntity
  8
PROTECT
100
AcDbPolyline
 90
        4
 70
     1
 43
0.0
 10
940.9
 20
1225.332
 10
940.9
 20
1315.332
 10
1030.9
 20
1315.332
 10
1030.9
 20
1225.332
  0
LWPOLYLINE
  5
A3
330
1F
100
AcDbEntity
  8
PROTECT
100
AcDbPolyline
 90
        4
 70
     1
 43
0.0
 10
182.3
 20
1376.332
 10
182.3
 20
1466.332
 10
272.3
 20
1466.332
 10
272.3
 20
1376.332
  0
LWPOLYLINE
  5
A4
330
1F
100
AcDbEntity
  8
PROTECT
100
AcDbPolyline
 90
        4
 70
     1
 43
0.0
 10
940.9
 20
-239.332
 10
940.9
 20
-149.332
 10
1030.9
 20
-149.332
 10
1030.9
 20
-239.332
  0
LWPOLYLINE
  5
A5
330
1F
100
AcDbEntity
  8
PROTECT
100
AcDbPolyline
 90
        4
 70
     1
 43
0.0
 10
96.5
 20
343.0
 10
96.5
 20
433.0
 10
186.5
 20
433.0
 10
186.5
 20
343.0
  0
LWPOLYLINE
  5
A6
330
1F
100
AcDbEntity
  8
PROTECT
100
AcDbPolyline
 90
        4
 70
     1
 43
0.0
 10
938.9
 20
1374.332
 10
938.9
 20
1466.332
 10
1030.9
 20
1466.332
 10
1030.9
 20
1374.332
  0
LWPOLYLINE
  5
A7
330
1F
100
AcDbEntity
  8
PROTECT
100
AcDbPolyline
 90
        4
 70
     1
 43
0.0
 10
331.3
 20
1374.332
 10
331.3
 20
1466.332
 10
423.3
 20
1466.332
 10
423.3
 20
1374.332
  0
LWPOLYLINE
  5
A8
330
1F
100
AcDbEntity
  8
PROTECT
100
AcDbPolyline
 90
        4
 70
     1
 43
0.0
 10
95.5
 20
492.0
 10
95.5
 20
584.0
 10
187.5
 20
584.0
 10
187.5
 20
492.0
  0
LWPOLYLINE
  5
A9
330
1F
100
AcDbEntity
  8
PROTECT
100
AcDbPolyline
 90
        4
 70
     1
 43
0.0
 10
331.3
 20
-390.332
 10
331.3
 20
-298.332
 10
423.3
 20
-298.332
 10
423.3
 20
-390.332
  0
LWPOLYLINE
  5
AA
330
1F
100
AcDbEntity
  8
PROTECT
100
AcDbPolyline
 90
        4
 70
     1
 43
0.0
 10
96.5
 20
643.0
 10
96.5
 20
733.0
 10
186.5
 20
733.0
 10
186.5
 20
643.0
  0
LWPOLYLINE
  5
AB
330
1F
100
AcDbEntity
  8
PROTECT
100
AcDbPolyline
 90
        4
 70
     1
 43
0.0
 10
182.3
 20
-390.332
 10
182.3
 20
-300.332
 10
272.3
 20
-300.332
 10
272.3
 20
-390.332
  0
LWPOLYLINE
  5
AC
330
1F
100
AcDbEntity
  8
VIA1
100
AcDbPolyline
 90
        4
 70
     1
 43
0.0
 10
15.0
 20
1497.0
 10
15.0
 20
1549.0
 10
1114.0
 20
1549.0
 10
1114.0
 20
1497.0
  0
LWPOLYLINE
  5
AE
330
1F
100
AcDbEntity
  8
VIA1
100
AcDbPolyline
 90
        4
 70
     1
 43
0.0
 10
1062.0
 20
-421.0
 10
1062.0
 20
1497.0
 10
1114.0
 20
1497.0
 10
1114.0
 20
-421.0
  0
LWPOLYLINE
  5
AF
330
1F
100
AcDbEntity
  8
VIA1
100
AcDbPolyline
 90
        4
 70
     1
 43
0.0
 10
109.3
 20
758.2
 10
109.3
 20
838.2
 10
189.3
 20
838.2
 10
189.3
 20
758.2
  0
LWPOLYLINE
  5
B0
330
1F
100
AcDbEntity
  8
VIA1
100
AcDbPolyline
 90
        4
 70
     1
 43
0.0
 10
195.1
 20
-275.132
 10
195.1
 20
-195.132
 10
275.1
 20
-195.132
 10
275.1
 20
-275.132
  0
LWPOLYLINE
  5
B1
330
1F
100
AcDbEntity
  8
VIA1
100
AcDbPolyline
 90
        4
 70
     1
 43
0.0
 10
109.3
 20
237.8
 10
109.3
 20
317.8
 10
189.3
 20
317.8
 10
189.3
 20
237.8
  0
LWPOLYLINE
  5
B2
330
1F
100
AcDbEntity
  8
VIA1
100
AcDbPolyline
 90
        4
 70
     1
 43
0.0
 10
938.1
 20
1120.132
 10
938.1
 20
1200.132
 10
1018.1
 20
1200.132
 10
1018.1
 20
1120.132
  0
LWPOLYLINE
  5
B3
330
1F
100
AcDbEntity
  8
VIA1
100
AcDbPolyline
 90
        4
 70
     1
 43
0.0
 10
938.1
 20
-124.132
 10
938.1
 20
-44.13200000000001
 10
1018.1
 20
-44.132
 10
1018.1
 20
-124.132
  0
LWPOLYLINE
  5
B4
330
1F
100
AcDbEntity
  8
VIA1
100
AcDbPolyline
 90
        4
 70
     1
 43
0.0
 10
195.1
 20
1271.132
 10
195.1
 20
1351.132
 10
275.1
 20
1351.132
 10
275.1
 20
1271.132
  0
LWPOLYLINE
  5
B5
330
1F
100
AcDbEntity
  8
VIA1
100
AcDbPolyline
 90
        4
 70
     1
 43
0.0
 10
15.0
 20
-473.0
 10
15.0
 20
-421.0
 10
1114.0
 20
-421.0
 10
1114.0
 20
-473.0
  0
LWPOLYLINE
  5
B6
330
1F
100
AcDbEntity
  8
VIA1
100
AcDbPolyline
 90
        4
 70
     1
 43
0.0
 10
15.0
 20
-421.0
 10
15.0
 20
1497.0
 10
67.0
 20
1497.0
 10
67.0
 20
-421.0
  0
LWPOLYLINE
  5
B7
330
1F
100
AcDbEntity
  8
MET1
100
AcDbPolyline
 90
       30
 70
     1
 43
0.0
 10
329.875
 20
-271.4
 10
329.875
 20
-236.4
 10
345.625
 20
-236.4
 10
349.825
 20
-237.1
 10
351.925
 20
-238.15
 10
353.675
 20
-239.2
 10
355.075
 20
-240.6
 10
356.125
 20
-242.7
 10
357.175
 20
-244.45
 10
357.175
 20
-249.0
 10
356.475
 20
-250.75
 10
355.425
 20
-252.5
 10
353.675
 20
-253.9
 10
351.925
 20
-254.95
 10
353.675
 20
-256.0
 10
354.725
 20
-257.05
 10
355.775
 20
-258.45
 10
356.475
 20
-259.85
 10
356.825
 20
-261.6
 10
357.175
 20
-266.85
 10
357.875
 20
-269.65
 10
358.925
 20
-271.4
 10
351.575
 20
-271.4
 10
350.525
 20
-268.6
 10
350.175
 20
-266.85
 10
349.825
 20
-261.6
 10
348.425
 20
-258.8
 10
347.025
 20
-258.1
 10
336.875
 20
-258.1
 10
336.875
 20
-271.4
  0
LWPOLYLINE
  5
B8
330
1F
100
AcDbEntity
  8
MET1
100
AcDbPolyline
 90
       11
 70
     1
 43
0.0
 10
336.875
 20
-252.15
 10
336.875
 20
-242.35
 10
347.025
 20
-242.35
 10
348.425
 20
-243.4
 10
349.125
 20
-244.45
 10
349.825
 20
-245.85
 10
349.825
 20
-248.65
 10
349.125
 20
-250.05
 10
348.425
 20
-251.1
 10
347.025
 20
-251.8
 10
345.625
 20
-252.15
  0
LWPOLYLINE
  5
B9
330
1F
100
AcDbEntity
  8
MET1
100
AcDbPolyline
 90
       10
 70
     1
 43
0.0
 10
364.875
 20
-271.4
 10
364.875
 20
-236.4
 10
393.925
 20
-236.4
 10
393.925
 20
-242.35
 10
371.875
 20
-242.35
 10
371.875
 20
-251.1
 10
391.125
 20
-251.1
 10
391.125
 20
-256.7
 10
371.875
 20
-256.7
 10
371.875
 20
-271.4
  0
LWPOLYLINE
  5
BA
330
1F
100
AcDbEntity
  8
MET1
100
AcDbPolyline
 90
       17
 70
     1
 43
0.0
 10
406.175
 20
1309.8
 10
406.175
 20
1315.05
 10
413.875
 20
1315.05
 10
413.875
 20
1333.25
 10
404.425
 20
1333.25
 10
404.425
 20
1337.8
 10
406.175
 20
1337.8
 10
408.275
 20
1338.15
 10
410.375
 20
1338.85
 10
412.125
 20
1339.55
 10
413.525
 20
1340.95
 10
414.575
 20
1342.7
 10
414.925
 20
1344.8
 10
420.875
 20
1344.8
 10
420.875
 20
1315.05
 10
428.575
 20
1315.05
 10
428.575
 20
1309.8
  0
LWPOLYLINE
  5
BB
330
1F
100
AcDbEntity
  8
MET1
100
AcDbPolyline
 90
       71
 70
     1
 43
0.0
 10
1008.4
 20
1350.5
 10
1008.75
 20
1353.3
 10
1009.8
 20
1355.4
 10
1011.2
 20
1357.5
 10
1012.95
 20
1359.25
 10
1015.05
 20
1360.65
 10
1017.5
 20
1361.35
 10
1019.95
 20
1361.7
 10
1026.6
 20
1361.7
 10
1028.7
 20
1361.0
 10
1030.8
 20
1359.95
 10
1032.55
 20
1358.55
 10
1033.95
 20
1356.8
 10
1034.65
 20
1354.7
 10
1035.0
 20
1352.25
 10
1035.0
 20
1350.5
 10
1034.3
 20
1348.75
 10
1033.25
 20
1347.35
 10
1030.45
 20
1345.25
 10
1032.2
 20
1344.55
 10
1035.0
 20
1342.45
 10
1036.05
 20
1340.7
 10
1036.75
 20
1338.95
 10
1036.75
 20
1337.2
 10
1036.4
 20
1334.4
 10
1035.7
 20
1332.3
 10
1033.95
 20
1330.2
 10
1032.2
 20
1328.8
 10
1030.1
 20
1327.75
 10
1027.65
 20
1326.7
 10
1020.3
 20
1326.7
 10
1017.5
 20
1327.05
 10
1015.05
 20
1328.1
 10
1012.95
 20
1329.5
 10
1011.2
 20
1331.25
 10
1009.45
 20
1333.35
 10
1008.4
 20
1335.8
 10
1007.7
 20
1338.25
 10
1014.0
 20
1338.25
 10
1014.7
 20
1336.5
 10
1015.75
 20
1334.75
 10
1017.15
 20
1333.35
 10
1018.9
 20
1332.65
 10
1021.0
 20
1331.95
 10
1024.5
 20
1331.95
 10
1028.0
 20
1333.35
 10
1029.4
 20
1334.4
 10
1030.1
 20
1335.8
 10
1030.45
 20
1337.9
 10
1030.1
 20
1339.3
 10
1029.05
 20
1340.7
 10
1027.65
 20
1341.75
 10
1026.25
 20
1342.45
 10
1017.5
 20
1342.45
 10
1017.5
 20
1347.0
 10
1023.45
 20
1347.0
 10
1024.85
 20
1347.35
 10
1027.65
 20
1348.75
 10
1028.35
 20
1350.15
 10
1028.7
 20
1351.9
 10
1028.35
 20
1353.3
 10
1027.3
 20
1354.7
 10
1026.25
 20
1355.4
 10
1024.5
 20
1356.1
 10
1023.1
 20
1356.45
 10
1019.95
 20
1356.45
 10
1018.2
 20
1355.75
 10
1016.8
 20
1355.05
 10
1015.4
 20
1354.0
 10
1014.35
 20
1352.6
 10
1014.0
 20
1350.5
  0
LWPOLYLINE
  5
BC
330
1F
100
AcDbEntity
  8
MET1
100
AcDbPolyline
 90
       10
 70
     1
 43
0.0
 10
972.7
 20
1326.7
 10
972.7
 20
1361.7
 10
1001.75
 20
1361.7
 10
1001.75
 20
1355.75
 10
979.7
 20
1355.75
 10
979.7
 20
1347.0
 10
998.95
 20
1347.0
 10
998.95
 20
1341.4
 10
979.7
 20
1341.4
 10
979.7
 20
1326.7
  0
LWPOLYLINE
  5
BD
330
1F
100
AcDbEntity
  8
MET1
100
AcDbPolyline
 90
       11
 70
     1
 43
0.0
 10
336.875
 20
-252.15
 10
336.875
 20
-242.35
 10
347.025
 20
-242.35
 10
348.425
 20
-243.4
 10
349.125
 20
-244.45
 10
349.825
 20
-245.85
 10
349.825
 20
-248.65
 10
349.125
 20
-250.05
 10
348.425
 20
-251.1
 10
347.025
 20
-251.8
 10
345.625
 20
-252.15
  0
LWPOLYLINE
  5
BE
330
1F
100
AcDbEntity
  8
MET1
100
AcDbPolyline
 90
       30
 70
     1
 43
0.0
 10
329.875
 20
1309.8
 10
329.875
 20
1344.8
 10
345.625
 20
1344.8
 10
349.825
 20
1344.1
 10
351.925
 20
1343.05
 10
353.675
 20
1342.0
 10
355.075
 20
1340.6
 10
356.125
 20
1338.5
 10
357.175
 20
1336.75
 10
357.175
 20
1332.2
 10
356.475
 20
1330.45
 10
355.425
 20
1328.7
 10
353.675
 20
1327.3
 10
351.925
 20
1326.25
 10
353.675
 20
1325.2
 10
354.725
 20
1324.15
 10
355.775
 20
1322.75
 10
356.475
 20
1321.35
 10
356.825
 20
1319.6
 10
357.175
 20
1314.35
 10
357.875
 20
1311.55
 10
358.925
 20
1309.8
 10
351.575
 20
1309.8
 10
350.525
 20
1312.6
 10
350.175
 20
1314.35
 10
349.825
 20
1319.6
 10
348.425
 20
1322.4
 10
347.025
 20
1323.1
 10
336.875
 20
1323.1
 10
336.875
 20
1309.8
  0
LWPOLYLINE
  5
BF
330
1F
100
AcDbEntity
  8
MET1
100
AcDbPolyline
 90
       17
 70
     1
 43
0.0
 10
406.175
 20
1309.8
 10
406.175
 20
1315.05
 10
413.875
 20
1315.05
 10
413.875
 20
1333.25
 10
404.425
 20
1333.25
 10
404.425
 20
1337.8
 10
406.175
 20
1337.8
 10
408.275
 20
1338.15
 10
410.375
 20
1338.85
 10
412.125
 20
1339.55
 10
413.525
 20
1340.95
 10
414.575
 20
1342.7
 10
414.925
 20
1344.8
 10
420.875
 20
1344.8
 10
420.875
 20
1315.05
 10
428.575
 20
1315.05
 10
428.575
 20
1309.8
  0
LWPOLYLINE
  5
C0
330
1F
100
AcDbEntity
  8
MET1
100
AcDbPolyline
 90
        3
 70
     1
 43
0.0
 10
1023.2
 20
-273.664
 10
1012.7
 20
-273.664
 10
1023.2
 20
-259.664
  0
LWPOLYLINE
  5
C1
330
1F
100
AcDbEntity
  8
MET1
100
AcDbPolyline
 90
       30
 70
     1
 43
0.0
 10
937.7
 20
1326.7
 10
937.7
 20
1361.7
 10
953.45
 20
1361.7
 10
957.65
 20
1361.0
 10
959.75
 20
1359.95
 10
961.5
 20
1358.9
 10
962.9
 20
1357.5
 10
963.95
 20
1355.4
 10
965.0
 20
1353.65
 10
965.0
 20
1349.1
 10
964.3000000000001
 20
1347.35
 10
963.25
 20
1345.6
 10
961.5
 20
1344.2
 10
959.75
 20
1343.15
 10
961.5
 20
1342.1
 10
962.5500000000001
 20
1341.05
 10
963.6
 20
1339.65
 10
964.3000000000001
 20
1338.25
 10
964.65
 20
1336.5
 10
965.0
 20
1331.25
 10
965.7
 20
1328.45
 10
966.75
 20
1326.7
 10
959.4
 20
1326.7
 10
958.35
 20
1329.5
 10
958.0
 20
1331.25
 10
957.65
 20
1336.5
 10
956.25
 20
1339.3
 10
954.85
 20
1340.0
 10
944.7
 20
1340.0
 10
944.7
 20
1326.7
  0
LWPOLYLINE
  5
C2
330
1F
100
AcDbEntity
  8
MET1
100
AcDbPolyline
 90
       10
 70
     1
 43
0.0
 10
970.7
 20
-286.964
 10
970.7
 20
-251.964
 10
999.75
 20
-251.964
 10
999.75
 20
-257.914
 10
977.7
 20
-257.914
 10
977.7
 20
-266.664
 10
996.95
 20
-266.664
 10
996.95
 20
-272.264
 10
977.7
 20
-272.264
 10
977.7
 20
-286.964
  0
LWPOLYLINE
  5
C3
330
1F
100
AcDbEntity
  8
MET1
100
AcDbPolyline
 90
       30
 70
     1
 43
0.0
 10
937.7
 20
1326.7
 10
937.7
 20
1361.7
 10
953.45
 20
1361.7
 10
957.65
 20
1361.0
 10
959.75
 20
1359.95
 10
961.5
 20
1358.9
 10
962.9
 20
1357.5
 10
963.95
 20
1355.4
 10
965.0
 20
1353.65
 10
965.0
 20
1349.1
 10
964.3000000000001
 20
1347.35
 10
963.25
 20
1345.6
 10
961.5
 20
1344.2
 10
959.75
 20
1343.15
 10
961.5
 20
1342.1
 10
962.5500000000001
 20
1341.05
 10
963.6
 20
1339.65
 10
964.3000000000001
 20
1338.25
 10
964.65
 20
1336.5
 10
965.0
 20
1331.25
 10
965.7
 20
1328.45
 10
966.75
 20
1326.7
 10
959.4
 20
1326.7
 10
958.35
 20
1329.5
 10
958.0
 20
1331.25
 10
957.65
 20
1336.5
 10
956.25
 20
1339.3
 10
954.85
 20
1340.0
 10
944.7
 20
1340.0
 10
944.7
 20
1326.7
  0
LWPOLYLINE
  5
C4
330
1F
100
AcDbEntity
  8
MET1
100
AcDbPolyline
 90
       30
 70
     1
 43
0.0
 10
935.7
 20
-286.964
 10
935.7
 20
-251.964
 10
951.45
 20
-251.964
 10
955.65
 20
-252.664
 10
957.75
 20
-253.714
 10
959.5
 20
-254.764
 10
960.9
 20
-256.164
 10
961.95
 20
-258.264
 10
963.0
 20
-260.014
 10
963.0
 20
-264.564
 10
962.3000000000001
 20
-266.314
 10
961.25
 20
-268.064
 10
959.5
 20
-269.464
 10
957.75
 20
-270.514
 10
959.5
 20
-271.564
 10
960.5500000000001
 20
-272.614
 10
961.6
 20
-274.014
 10
962.3000000000001
 20
-275.414
 10
962.65
 20
-277.164
 10
963.0
 20
-282.414
 10
963.7
 20
-285.214
 10
964.75
 20
-286.964
 10
957.4
 20
-286.964
 10
956.35
 20
-284.164
 10
956.0
 20
-282.414
 10
955.65
 20
-277.164
 10
954.25
 20
-274.364
 10
952.85
 20
-273.664
 10
942.7
 20
-273.664
 10
942.7
 20
-286.964
  0
LWPOLYLINE
  5
C5
330
1F
100
AcDbEntity
  8
MET1
100
AcDbPolyline
 90
       10
 70
     1
 43
0.0
 10
364.875
 20
1309.8
 10
364.875
 20
1344.8
 10
393.925
 20
1344.8
 10
393.925
 20
1338.85
 10
371.875
 20
1338.85
 10
371.875
 20
1330.1
 10
391.125
 20
1330.1
 10
391.125
 20
1324.5
 10
371.875
 20
1324.5
 10
371.875
 20
1309.8
  0
LWPOLYLINE
  5
C6
330
1F
100
AcDbEntity
  8
MET1
100
AcDbPolyline
 90
       11
 70
     1
 43
0.0
 10
944.7
 20
1345.95
 10
944.7
 20
1355.75
 10
954.85
 20
1355.75
 10
956.25
 20
1354.7
 10
956.95
 20
1353.65
 10
957.65
 20
1352.25
 10
957.65
 20
1349.45
 10
956.95
 20
1348.05
 10
956.25
 20
1347.0
 10
954.85
 20
1346.3
 10
953.45
 20
1345.95
  0
LWPOLYLINE
  5
C7
330
1F
100
AcDbEntity
  8
MET1
100
AcDbPolyline
 90
       11
 70
     1
 43
0.0
 10
336.875
 20
1329.05
 10
336.875
 20
1338.85
 10
347.025
 20
1338.85
 10
348.425
 20
1337.8
 10
349.125
 20
1336.75
 10
349.825
 20
1335.35
 10
349.825
 20
1332.55
 10
349.125
 20
1331.15
 10
348.425
 20
1330.1
 10
347.025
 20
1329.4
 10
345.625
 20
1329.05
  0
LWPOLYLINE
  5
C8
330
1F
100
AcDbEntity
  8
MET1
100
AcDbPolyline
 90
       30
 70
     1
 43
0.0
 10
329.875
 20
1309.8
 10
329.875
 20
1344.8
 10
345.625
 20
1344.8
 10
349.825
 20
1344.1
 10
351.925
 20
1343.05
 10
353.675
 20
1342.0
 10
355.075
 20
1340.6
 10
356.125
 20
1338.5
 10
357.175
 20
1336.75
 10
357.175
 20
1332.2
 10
356.475
 20
1330.45
 10
355.425
 20
1328.7
 10
353.675
 20
1327.3
 10
351.925
 20
1326.25
 10
353.675
 20
1325.2
 10
354.725
 20
1324.15
 10
355.775
 20
1322.75
 10
356.475
 20
1321.35
 10
356.825
 20
1319.6
 10
357.175
 20
1314.35
 10
357.875
 20
1311.55
 10
358.925
 20
1309.8
 10
351.575
 20
1309.8
 10
350.525
 20
1312.6
 10
350.175
 20
1314.35
 10
349.825
 20
1319.6
 10
348.425
 20
1322.4
 10
347.025
 20
1323.1
 10
336.875
 20
1323.1
 10
336.875
 20
1309.8
  0
LWPOLYLINE
  5
C9
330
1F
100
AcDbEntity
  8
MET1
100
AcDbPolyline
 90
       11
 70
     1
 43
0.0
 10
944.7
 20
1345.95
 10
944.7
 20
1355.75
 10
954.85
 20
1355.75
 10
956.25
 20
1354.7
 10
956.95
 20
1353.65
 10
957.65
 20
1352.25
 10
957.65
 20
1349.45
 10
956.95
 20
1348.05
 10
956.25
 20
1347.0
 10
954.85
 20
1346.3
 10
953.45
 20
1345.95
  0
LWPOLYLINE
  5
CA
330
1F
100
AcDbEntity
  8
MET1
100
AcDbPolyline
 90
       10
 70
     1
 43
0.0
 10
364.875
 20
-271.4
 10
364.875
 20
-236.4
 10
393.925
 20
-236.4
 10
393.925
 20
-242.35
 10
371.875
 20
-242.35
 10
371.875
 20
-251.1
 10
391.125
 20
-251.1
 10
391.125
 20
-256.7
 10
371.875
 20
-256.7
 10
371.875
 20
-271.4
  0
LWPOLYLINE
  5
CB
330
1F
100
AcDbEntity
  8
MET1
100
AcDbPolyline
 90
       10
 70
     1
 43
0.0
 10
364.875
 20
1309.8
 10
364.875
 20
1344.8
 10
393.925
 20
1344.8
 10
393.925
 20
1338.85
 10
371.875
 20
1338.85
 10
371.875
 20
1330.1
 10
391.125
 20
1330.1
 10
391.125
 20
1324.5
 10
371.875
 20
1324.5
 10
371.875
 20
1309.8
  0
LWPOLYLINE
  5
CC
330
1F
100
AcDbEntity
  8
MET1
100
AcDbPolyline
 90
       10
 70
     1
 43
0.0
 10
972.7
 20
1326.7
 10
972.7
 20
1361.7
 10
1001.75
 20
1361.7
 10
1001.75
 20
1355.75
 10
979.7
 20
1355.75
 10
979.7
 20
1347.0
 10
998.95
 20
1347.0
 10
998.95
 20
1341.4
 10
979.7
 20
1341.4
 10
979.7
 20
1326.7
  0
LWPOLYLINE
  5
CD
330
1F
100
AcDbEntity
  8
MET1
100
AcDbPolyline
 90
       50
 70
     1
 43
0.0
 10
399.875
 20
-247.95
 10
400.225
 20
-245.5
 10
401.275
 20
-243.05
 10
403.025
 20
-240.95
 10
404.775
 20
-239.2
 10
406.875
 20
-237.8
 10
409.325
 20
-236.75
 10
411.775
 20
-236.4
 10
419.475
 20
-236.4
 10
421.925
 20
-237.1
 10
426.125
 20
-239.9
 10
427.525
 20
-241.65
 10
428.575
 20
-244.1
 10
428.925
 20
-246.9
 10
428.575
 20
-249.35
 10
427.525
 20
-251.1
 10
426.125
 20
-252.85
 10
424.375
 20
-254.25
 10
422.625
 20
-254.95
 10
414.925
 20
-258.45
 10
413.525
 20
-259.15
 10
411.775
 20
-260.2
 10
410.025
 20
-261.6
 10
408.625
 20
-263.35
 10
407.575
 20
-265.45
 10
428.925
 20
-265.45
 10
428.925
 20
-271.4
 10
399.875
 20
-271.4
 10
399.875
 20
-268.6
 10
400.225
 20
-265.1
 10
401.625
 20
-261.95
 10
403.375
 20
-259.5
 10
405.475
 20
-257.4
 10
412.825
 20
-253.2
 10
418.075
 20
-251.1
 10
419.475
 20
-250.4
 10
420.525
 20
-249.35
 10
421.575
 20
-247.95
 10
421.925
 20
-246.2
 10
421.575
 20
-244.45
 10
420.525
 20
-243.4
 10
419.125
 20
-242.35
 10
417.725
 20
-242.0
 10
415.975
 20
-241.65
 10
414.575
 20
-241.65
 10
412.475
 20
-242.0
 10
410.725
 20
-242.35
 10
408.975
 20
-243.4
 10
407.575
 20
-244.45
 10
406.175
 20
-247.95
  0
LWPOLYLINE
  5
CE
330
1F
100
AcDbEntity
  8
MET1
100
AcDbPolyline
 90
       30
 70
     1
 43
0.0
 10
329.875
 20
-271.4
 10
329.875
 20
-236.4
 10
345.625
 20
-236.4
 10
349.825
 20
-237.1
 10
351.925
 20
-238.15
 10
353.675
 20
-239.2
 10
355.075
 20
-240.6
 10
356.125
 20
-242.7
 10
357.175
 20
-244.45
 10
357.175
 20
-249.0
 10
356.475
 20
-250.75
 10
355.425
 20
-252.5
 10
353.675
 20
-253.9
 10
351.925
 20
-254.95
 10
353.675
 20
-256.0
 10
354.725
 20
-257.05
 10
355.775
 20
-258.45
 10
356.475
 20
-259.85
 10
356.825
 20
-261.6
 10
357.175
 20
-266.85
 10
357.875
 20
-269.65
 10
358.925
 20
-271.4
 10
351.575
 20
-271.4
 10
350.525
 20
-268.6
 10
350.175
 20
-266.85
 10
349.825
 20
-261.6
 10
348.425
 20
-258.8
 10
347.025
 20
-258.1
 10
336.875
 20
-258.1
 10
336.875
 20
-271.4
  0
LWPOLYLINE
  5
CF
330
1F
100
AcDbEntity
  8
MET1
100
AcDbPolyline
 90
       71
 70
     1
 43
0.0
 10
1008.4
 20
1350.5
 10
1008.75
 20
1353.3
 10
1009.8
 20
1355.4
 10
1011.2
 20
1357.5
 10
1012.95
 20
1359.25
 10
1015.05
 20
1360.65
 10
1017.5
 20
1361.35
 10
1019.95
 20
1361.7
 10
1026.6
 20
1361.7
 10
1028.7
 20
1361.0
 10
1030.8
 20
1359.95
 10
1032.55
 20
1358.55
 10
1033.95
 20
1356.8
 10
1034.65
 20
1354.7
 10
1035.0
 20
1352.25
 10
1035.0
 20
1350.5
 10
1034.3
 20
1348.75
 10
1033.25
 20
1347.35
 10
1030.45
 20
1345.25
 10
1032.2
 20
1344.55
 10
1035.0
 20
1342.45
 10
1036.05
 20
1340.7
 10
1036.75
 20
1338.95
 10
1036.75
 20
1337.2
 10
1036.4
 20
1334.4
 10
1035.7
 20
1332.3
 10
1033.95
 20
1330.2
 10
1032.2
 20
1328.8
 10
1030.1
 20
1327.75
 10
1027.65
 20
1326.7
 10
1020.3
 20
1326.7
 10
1017.5
 20
1327.05
 10
1015.05
 20
1328.1
 10
1012.95
 20
1329.5
 10
1011.2
 20
1331.25
 10
1009.45
 20
1333.35
 10
1008.4
 20
1335.8
 10
1007.7
 20
1338.25
 10
1014.0
 20
1338.25
 10
1014.7
 20
1336.5
 10
1015.75
 20
1334.75
 10
1017.15
 20
1333.35
 10
1018.9
 20
1332.65
 10
1021.0
 20
1331.95
 10
1024.5
 20
1331.95
 10
1028.0
 20
1333.35
 10
1029.4
 20
1334.4
 10
1030.1
 20
1335.8
 10
1030.45
 20
1337.9
 10
1030.1
 20
1339.3
 10
1029.05
 20
1340.7
 10
1027.65
 20
1341.75
 10
1026.25
 20
1342.45
 10
1017.5
 20
1342.45
 10
1017.5
 20
1347.0
 10
1023.45
 20
1347.0
 10
1024.85
 20
1347.35
 10
1027.65
 20
1348.75
 10
1028.35
 20
1350.15
 10
1028.7
 20
1351.9
 10
1028.35
 20
1353.3
 10
1027.3
 20
1354.7
 10
1026.25
 20
1355.4
 10
1024.5
 20
1356.1
 10
1023.1
 20
1356.45
 10
1019.95
 20
1356.45
 10
1018.2
 20
1355.75
 10
1016.8
 20
1355.05
 10
1015.4
 20
1354.0
 10
1014.35
 20
1352.6
 10
1014.0
 20
1350.5
  0
LWPOLYLINE
  5
D0
330
1F
100
AcDbEntity
  8
MET1
100
AcDbPolyline
 90
       11
 70
     1
 43
0.0
 10
942.7
 20
-267.714
 10
942.7
 20
-257.914
 10
952.85
 20
-257.914
 10
954.25
 20
-258.964
 10
954.95
 20
-260.014
 10
955.65
 20
-261.414
 10
955.65
 20
-264.214
 10
954.95
 20
-265.614
 10
954.25
 20
-266.664
 10
952.85
 20
-267.364
 10
951.45
 20
-267.714
  0
LWPOLYLINE
  5
D1
330
1F
100
AcDbEntity
  8
MET1
100
AcDbPolyline
 90
        3
 70
     1
 43
0.0
 10
1023.2
 20
-273.664
 10
1012.7
 20
-273.664
 10
1023.2
 20
-259.664
  0
LWPOLYLINE
  5
D2
330
1F
100
AcDbEntity
  8
MET1
100
AcDbPolyline
 90
       11
 70
     1
 43
0.0
 10
1023.2
 20
-286.964
 10
1023.2
 20
-278.914
 10
1005.7
 20
-278.914
 10
1005.7
 20
-274.014
 10
1022.15
 20
-251.964
 10
1029.5
 20
-251.964
 10
1029.5
 20
-273.664
 10
1034.75
 20
-273.664
 10
1034.75
 20
-278.914
 10
1029.5
 20
-278.914
 10
1029.5
 20
-286.964
  0
LWPOLYLINE
  5
D3
330
1F
100
AcDbEntity
  8
MET1
100
AcDbPolyline
 90
       50
 70
     1
 43
0.0
 10
399.875
 20
-247.95
 10
400.225
 20
-245.5
 10
401.275
 20
-243.05
 10
403.025
 20
-240.95
 10
404.775
 20
-239.2
 10
406.875
 20
-237.8
 10
409.325
 20
-236.75
 10
411.775
 20
-236.4
 10
419.475
 20
-236.4
 10
421.925
 20
-237.1
 10
426.125
 20
-239.9
 10
427.525
 20
-241.65
 10
428.575
 20
-244.1
 10
428.925
 20
-246.9
 10
428.575
 20
-249.35
 10
427.525
 20
-251.1
 10
426.125
 20
-252.85
 10
424.375
 20
-254.25
 10
422.625
 20
-254.95
 10
414.925
 20
-258.45
 10
413.525
 20
-259.15
 10
411.775
 20
-260.2
 10
410.025
 20
-261.6
 10
408.625
 20
-263.35
 10
407.575
 20
-265.45
 10
428.925
 20
-265.45
 10
428.925
 20
-271.4
 10
399.875
 20
-271.4
 10
399.875
 20
-268.6
 10
400.225
 20
-265.1
 10
401.625
 20
-261.95
 10
403.375
 20
-259.5
 10
405.475
 20
-257.4
 10
412.825
 20
-253.2
 10
418.075
 20
-251.1
 10
419.475
 20
-250.4
 10
420.525
 20
-249.35
 10
421.575
 20
-247.95
 10
421.925
 20
-246.2
 10
421.575
 20
-244.45
 10
420.525
 20
-243.4
 10
419.125
 20
-242.35
 10
417.725
 20
-242.0
 10
415.975
 20
-241.65
 10
414.575
 20
-241.65
 10
412.475
 20
-242.0
 10
410.725
 20
-242.35
 10
408.975
 20
-243.4
 10
407.575
 20
-244.45
 10
406.175
 20
-247.95
  0
LWPOLYLINE
  5
D4
330
1F
100
AcDbEntity
  8
MET1
100
AcDbPolyline
 90
        6
 70
     1
 43
0.0
 10
1019.3
 20
-145.332
 10
1019.3
 20
-42.932
 10
936.9
 20
-42.932
 10
936.9
 20
-243.332
 10
1034.9
 20
-243.332
 10
1034.9
 20
-145.332
  0
LWPOLYLINE
  5
D5
330
1F
100
AcDbEntity
  8
MET1
100
AcDbPolyline
 90
        6
 70
     1
 43
0.0
 10
936.9
 20
1118.932
 10
1019.3
 20
1118.932
 10
1019.3
 20
1221.332
 10
1034.9
 20
1221.332
 10
1034.9
 20
1319.332
 10
936.9
 20
1319.332
  0
LWPOLYLINE
  5
D6
330
1F
100
AcDbEntity
  8
MET1
100
AcDbPolyline
 90
       10
 70
     1
 43
0.0
 10
970.7
 20
-286.964
 10
970.7
 20
-251.964
 10
999.75
 20
-251.964
 10
999.75
 20
-257.914
 10
977.7
 20
-257.914
 10
977.7
 20
-266.664
 10
996.95
 20
-266.664
 10
996.95
 20
-272.264
 10
977.7
 20
-272.264
 10
977.7
 20
-286.964
  0
LWPOLYLINE
  5
D7
330
1F
100
AcDbEntity
  8
MET1
100
AcDbPolyline
 90
       30
 70
     1
 43
0.0
 10
935.7
 20
-286.964
 10
935.7
 20
-251.964
 10
951.45
 20
-251.964
 10
955.65
 20
-252.664
 10
957.75
 20
-253.714
 10
959.5
 20
-254.764
 10
960.9
 20
-256.164
 10
961.95
 20
-258.264
 10
963.0
 20
-260.014
 10
963.0
 20
-264.564
 10
962.3000000000001
 20
-266.314
 10
961.25
 20
-268.064
 10
959.5
 20
-269.464
 10
957.75
 20
-270.514
 10
959.5
 20
-271.564
 10
960.5500000000001
 20
-272.614
 10
961.6
 20
-274.014
 10
962.3000000000001
 20
-275.414
 10
962.65
 20
-277.164
 10
963.0
 20
-282.414
 10
963.7
 20
-285.214
 10
964.75
 20
-286.964
 10
957.4
 20
-286.964
 10
956.35
 20
-284.164
 10
956.0
 20
-282.414
 10
955.65
 20
-277.164
 10
954.25
 20
-274.364
 10
952.85
 20
-273.664
 10
942.7
 20
-273.664
 10
942.7
 20
-286.964
  0
LWPOLYLINE
  5
D8
330
1F
100
AcDbEntity
  8
MET1
100
AcDbPolyline
 90
       11
 70
     1
 43
0.0
 10
1023.2
 20
-286.964
 10
1023.2
 20
-278.914
 10
1005.7
 20
-278.914
 10
1005.7
 20
-274.014
 10
1022.15
 20
-251.964
 10
1029.5
 20
-251.964
 10
1029.5
 20
-273.664
 10
1034.75
 20
-273.664
 10
1034.75
 20
-278.914
 10
1029.5
 20
-278.914
 10
1029.5
 20
-286.964
  0
LWPOLYLINE
  5
D9
330
1F
100
AcDbEntity
  8
MET1
100
AcDbPolyline
 90
       11
 70
     1
 43
0.0
 10
942.7
 20
-267.714
 10
942.7
 20
-257.914
 10
952.85
 20
-257.914
 10
954.25
 20
-258.964
 10
954.95
 20
-260.014
 10
955.65
 20
-261.414
 10
955.65
 20
-264.214
 10
954.95
 20
-265.614
 10
954.25
 20
-266.664
 10
952.85
 20
-267.364
 10
951.45
 20
-267.714
  0
LWPOLYLINE
  5
DA
330
1F
100
AcDbEntity
  8
MET1
100
AcDbPolyline
 90
        6
 70
     1
 43
0.0
 10
178.3
 20
1372.332
 10
193.9
 20
1372.332
 10
193.9
 20
1269.932
 10
276.3
 20
1269.932
 10
276.3
 20
1470.332
 10
178.3
 20
1470.332
  0
LWPOLYLINE
  5
DB
330
1F
100
AcDbEntity
  8
MET1
100
AcDbPolyline
 90
        6
 70
     1
 43
0.0
 10
178.3
 20
-394.332
 10
276.3
 20
-394.332
 10
276.3
 20
-193.932
 10
193.9
 20
-193.932
 10
193.9
 20
-296.332
 10
178.3
 20
-296.332
  0
LWPOLYLINE
  5
DC
330
1F
100
AcDbEntity
  8
MET1
100
AcDbPolyline
 90
       30
 70
     1
 43
0.0
 10
124.3
 20
463.3
 10
125.3
 20
463.9
 10
126.3
 20
464.7
 10
126.9
 20
465.7
 10
127.3
 20
466.7
 10
127.3
 20
469.3
 10
126.7
 20
470.3
 10
126.1
 20
471.5
 10
125.3
 20
472.3
 10
124.3
 20
472.9
 10
123.1
 20
473.5
 10
120.7
 20
473.9
 10
111.7
 20
473.9
 10
111.7
 20
453.9
 10
115.7
 20
453.9
 10
115.7
 20
461.5
 10
121.5
 20
461.5
 10
122.3
 20
461.1
 10
123.1
 20
459.5
 10
123.3
 20
456.5
 10
123.5
 20
455.5
 10
124.1
 20
453.9
 10
128.3
 20
453.9
 10
127.7
 20
454.9
 10
127.3
 20
456.5
 10
127.1
 20
459.5
 10
126.9
 20
460.5
 10
126.5
 20
461.3
 10
125.9
 20
462.1
 10
125.3
 20
462.7
  0
LWPOLYLINE
  5
DD
330
1F
100
AcDbEntity
  8
MET1
100
AcDbPolyline
 90
       55
 70
     1
 43
0.0
 10
151.7
 20
462.3
 10
151.9
 20
460.9
 10
152.5
 20
459.3
 10
153.1
 20
457.9
 10
153.9
 20
456.7
 10
154.7
 20
455.7
 10
155.9
 20
454.7
 10
157.3
 20
454.1
 10
158.7
 20
453.9
 10
161.9
 20
453.9
 10
163.3
 20
454.1
 10
164.5
 20
454.7
 10
165.7
 20
455.5
 10
166.7
 20
456.7
 10
167.5
 20
457.9
 10
168.1
 20
459.1
 10
168.3
 20
460.5
 10
164.3
 20
460.5
 10
163.5
 20
458.5
 10
162.7
 20
457.7
 10
161.5
 20
457.1
 10
160.3
 20
456.9
 10
159.3
 20
457.1
 10
158.3
 20
457.5
 10
157.5
 20
458.1
 10
156.3
 20
460.1
 10
156.1
 20
461.3
 10
155.7
 20
462.5
 10
155.7
 20
465.3
 10
156.1
 20
466.5
 10
156.3
 20
467.7
 10
157.5
 20
469.7
 10
158.3
 20
470.3
 10
159.3
 20
470.7
 10
160.3
 20
470.9
 10
161.7
 20
470.7
 10
162.7
 20
470.1
 10
163.5
 20
469.3
 10
164.3
 20
467.3
 10
168.3
 20
467.3
 10
167.9
 20
468.5
 10
167.3
 20
469.9
 10
166.5
 20
471.1
 10
165.7
 20
472.1
 10
163.3
 20
473.7
 10
161.9
 20
473.9
 10
158.7
 20
473.9
 10
157.3
 20
473.7
 10
155.9
 20
473.1
 10
154.7
 20
472.1
 10
153.9
 20
471.1
 10
153.1
 20
469.9
 10
152.5
 20
468.5
 10
151.9
 20
466.9
 10
151.7
 20
465.5
  0
LWPOLYLINE
  5
DE
330
1F
100
AcDbEntity
  8
MET1
100
AcDbPolyline
 90
       10
 70
     1
 43
0.0
 10
131.7
 20
453.9
 10
135.7
 20
453.9
 10
135.7
 20
462.3
 10
146.7
 20
462.3
 10
146.7
 20
465.5
 10
135.7
 20
465.5
 10
135.7
 20
470.5
 10
148.3
 20
470.5
 10
148.3
 20
473.9
 10
131.7
 20
473.9
  0
LWPOLYLINE
  5
DF
330
1F
100
AcDbEntity
  8
MET1
100
AcDbPolyline
 90
       11
 70
     1
 43
0.0
 10
336.875
 20
1329.05
 10
336.875
 20
1338.85
 10
347.025
 20
1338.85
 10
348.425
 20
1337.8
 10
349.125
 20
1336.75
 10
349.825
 20
1335.35
 10
349.825
 20
1332.55
 10
349.125
 20
1331.15
 10
348.425
 20
1330.1
 10
347.025
 20
1329.4
 10
345.625
 20
1329.05
  0
LWPOLYLINE
  5
E0
330
1F
100
AcDbEntity
  8
MET1
100
AcDbPolyline
 90
        6
 70
     1
 43
0.0
 10
92.5
 20
339.0
 10
108.1
 20
339.0
 10
108.1
 20
236.6
 10
190.5
 20
236.6
 10
190.5
 20
437.0
 10
92.5
 20
437.0
  0
LWPOLYLINE
  5
E1
330
1F
100
AcDbEntity
  8
MET1
100
AcDbPolyline
 90
        6
 70
     1
 43
0.0
 10
92.5
 20
639.0
 10
190.5
 20
639.0
 10
190.5
 20
839.4
 10
108.1
 20
839.4
 10
108.1
 20
737.0
 10
92.5
 20
737.0
  0
LWPOLYLINE
  5
E2
330
1F
100
AcDbEntity
  8
MET1
100
AcDbPolyline
 90
        2
 70
     0
 43
0.0
 10
26.0
 20
-447.0
 10
1103.0
 20
-447.0
  0
LWPOLYLINE
  5
E3
330
1F
100
AcDbEntity
  8
MET1
100
AcDbPolyline
 90
        2
 70
     0
 43
0.0
 10
1088.0
 20
-462.0
 10
1088.0
 20
1538.0
  0
LWPOLYLINE
  5
E4
330
1F
100
AcDbEntity
  8
MET1
100
AcDbPolyline
 90
        2
 70
     0
 43
0.0
 10
1103.0
 20
1523.0
 10
26.0
 20
1523.0
  0
LWPOLYLINE
  5
E5
330
1F
100
AcDbEntity
  8
MET1
100
AcDbPolyline
 90
        2
 70
     0
 43
0.0
 10
41.0
 20
1538.0
 10
41.0
 20
-462.0
  0
LWPOLYLINE
  5
E6
330
1F
100
AcDbEntity
  8
DM_Label
100
AcDbPolyline
 90
       11
 70
     1
 43
0.0
 10
336.875
 20
1329.05
 10
336.875
 20
1338.85
 10
347.025
 20
1338.85
 10
348.425
 20
1337.8
 10
349.125
 20
1336.75
 10
349.825
 20
1335.35
 10
349.825
 20
1332.55
 10
349.125
 20
1331.15
 10
348.425
 20
1330.1
 10
347.025
 20
1329.4
 10
345.625
 20
1329.05
  0
LWPOLYLINE
  5
E8
330
1F
100
AcDbEntity
  8
DM_Label
100
AcDbPolyline
 90
       10
 70
     1
 43
0.0
 10
364.875
 20
1309.8
 10
364.875
 20
1344.8
 10
393.925
 20
1344.8
 10
393.925
 20
1338.85
 10
371.875
 20
1338.85
 10
371.875
 20
1330.1
 10
391.125
 20
1330.1
 10
391.125
 20
1324.5
 10
371.875
 20
1324.5
 10
371.875
 20
1309.8
  0
LWPOLYLINE
  5
E9
330
1F
100
AcDbEntity
  8
DM_Label
100
AcDbPolyline
 90
       17
 70
     1
 43
0.0
 10
406.175
 20
1309.8
 10
406.175
 20
1315.05
 10
413.875
 20
1315.05
 10
413.875
 20
1333.25
 10
404.425
 20
1333.25
 10
404.425
 20
1337.8
 10
406.175
 20
1337.8
 10
408.275
 20
1338.15
 10
410.375
 20
1338.85
 10
412.125
 20
1339.55
 10
413.525
 20
1340.95
 10
414.575
 20
1342.7
 10
414.925
 20
1344.8
 10
420.875
 20
1344.8
 10
420.875
 20
1315.05
 10
428.575
 20
1315.05
 10
428.575
 20
1309.8
  0
LWPOLYLINE
  5
EA
330
1F
100
AcDbEntity
  8
DM_Label
100
AcDbPolyline
 90
       30
 70
     1
 43
0.0
 10
937.7
 20
1326.7
 10
937.7
 20
1361.7
 10
953.45
 20
1361.7
 10
957.65
 20
1361.0
 10
959.75
 20
1359.95
 10
961.5
 20
1358.9
 10
962.9
 20
1357.5
 10
963.95
 20
1355.4
 10
965.0
 20
1353.65
 10
965.0
 20
1349.1
 10
964.3000000000001
 20
1347.35
 10
963.25
 20
1345.6
 10
961.5
 20
1344.2
 10
959.75
 20
1343.15
 10
961.5
 20
1342.1
 10
962.5500000000001
 20
1341.05
 10
963.6
 20
1339.65
 10
964.3000000000001
 20
1338.25
 10
964.65
 20
1336.5
 10
965.0
 20
1331.25
 10
965.7
 20
1328.45
 10
966.75
 20
1326.7
 10
959.4
 20
1326.7
 10
958.35
 20
1329.5
 10
958.0
 20
1331.25
 10
957.65
 20
1336.5
 10
956.25
 20
1339.3
 10
954.85
 20
1340.0
 10
944.7
 20
1340.0
 10
944.7
 20
1326.7
  0
LWPOLYLINE
  5
EB
330
1F
100
AcDbEntity
  8
DM_Label
100
AcDbPolyline
 90
       10
 70
     1
 43
0.0
 10
972.7
 20
1326.7
 10
972.7
 20
1361.7
 10
1001.75
 20
1361.7
 10
1001.75
 20
1355.75
 10
979.7
 20
1355.75
 10
979.7
 20
1347.0
 10
998.95
 20
1347.0
 10
998.95
 20
1341.4
 10
979.7
 20
1341.4
 10
979.7
 20
1326.7
  0
LWPOLYLINE
  5
EC
330
1F
100
AcDbEntity
  8
DM_Label
100
AcDbPolyline
 90
       50
 70
     1
 43
0.0
 10
399.875
 20
-247.95
 10
400.225
 20
-245.5
 10
401.275
 20
-243.05
 10
403.025
 20
-240.95
 10
404.775
 20
-239.2
 10
406.875
 20
-237.8
 10
409.325
 20
-236.75
 10
411.775
 20
-236.4
 10
419.475
 20
-236.4
 10
421.925
 20
-237.1
 10
426.125
 20
-239.9
 10
427.525
 20
-241.65
 10
428.575
 20
-244.1
 10
428.925
 20
-246.9
 10
428.575
 20
-249.35
 10
427.525
 20
-251.1
 10
426.125
 20
-252.85
 10
424.375
 20
-254.25
 10
422.625
 20
-254.95
 10
414.925
 20
-258.45
 10
413.525
 20
-259.15
 10
411.775
 20
-260.2
 10
410.025
 20
-261.6
 10
408.625
 20
-263.35
 10
407.575
 20
-265.45
 10
428.925
 20
-265.45
 10
428.925
 20
-271.4
 10
399.875
 20
-271.4
 10
399.875
 20
-268.6
 10
400.225
 20
-265.1
 10
401.625
 20
-261.95
 10
403.375
 20
-259.5
 10
405.475
 20
-257.4
 10
412.825
 20
-253.2
 10
418.075
 20
-251.1
 10
419.475
 20
-250.4
 10
420.525
 20
-249.35
 10
421.575
 20
-247.95
 10
421.925
 20
-246.2
 10
421.575
 20
-244.45
 10
420.525
 20
-243.4
 10
419.125
 20
-242.35
 10
417.725
 20
-242.0
 10
415.975
 20
-241.65
 10
414.575
 20
-241.65
 10
412.475
 20
-242.0
 10
410.725
 20
-242.35
 10
408.975
 20
-243.4
 10
407.575
 20
-244.45
 10
406.175
 20
-247.95
  0
LWPOLYLINE
  5
ED
330
1F
100
AcDbEntity
  8
DM_Label
100
AcDbPolyline
 90
        3
 70
     1
 43
0.0
 10
1023.2
 20
-273.664
 10
1012.7
 20
-273.664
 10
1023.2
 20
-259.664
  0
LWPOLYLINE
  5
EE
330
1F
100
AcDbEntity
  8
DM_Label
100
AcDbPolyline
 90
       10
 70
     1
 43
0.0
 10
131.7
 20
453.9
 10
135.7
 20
453.9
 10
135.7
 20
462.3
 10
146.7
 20
462.3
 10
146.7
 20
465.5
 10
135.7
 20
465.5
 10
135.7
 20
470.5
 10
148.3
 20
470.5
 10
148.3
 20
473.9
 10
131.7
 20
473.9
  0
LWPOLYLINE
  5
EF
330
1F
100
AcDbEntity
  8
DM_Label
100
AcDbPolyline
 90
       30
 70
     1
 43
0.0
 10
329.875
 20
-271.4
 10
329.875
 20
-236.4
 10
345.625
 20
-236.4
 10
349.825
 20
-237.1
 10
351.925
 20
-238.15
 10
353.675
 20
-239.2
 10
355.075
 20
-240.6
 10
356.125
 20
-242.7
 10
357.175
 20
-244.45
 10
357.175
 20
-249.0
 10
356.475
 20
-250.75
 10
355.425
 20
-252.5
 10
353.675
 20
-253.9
 10
351.925
 20
-254.95
 10
353.675
 20
-256.0
 10
354.725
 20
-257.05
 10
355.775
 20
-258.45
 10
356.475
 20
-259.85
 10
356.825
 20
-261.6
 10
357.175
 20
-266.85
 10
357.875
 20
-269.65
 10
358.925
 20
-271.4
 10
351.575
 20
-271.4
 10
350.525
 20
-268.6
 10
350.175
 20
-266.85
 10
349.825
 20
-261.6
 10
348.425
 20
-258.8
 10
347.025
 20
-258.1
 10
336.875
 20
-258.1
 10
336.875
 20
-271.4
  0
LWPOLYLINE
  5
F0
330
1F
100
AcDbEntity
  8
DM_Label
100
AcDbPolyline
 90
       10
 70
     1
 43
0.0
 10
364.875
 20
-271.4
 10
364.875
 20
-236.4
 10
393.925
 20
-236.4
 10
393.925
 20
-242.35
 10
371.875
 20
-242.35
 10
371.875
 20
-251.1
 10
391.125
 20
-251.1
 10
391.125
 20
-256.7
 10
371.875
 20
-256.7
 10
371.875
 20
-271.4
  0
LWPOLYLINE
  5
F1
330
1F
100
AcDbEntity
  8
DM_Label
100
AcDbPolyline
 90
       55
 70
     1
 43
0.0
 10
151.7
 20
462.3
 10
151.9
 20
460.9
 10
152.5
 20
459.3
 10
153.1
 20
457.9
 10
153.9
 20
456.7
 10
154.7
 20
455.7
 10
155.9
 20
454.7
 10
157.3
 20
454.1
 10
158.7
 20
453.9
 10
161.9
 20
453.9
 10
163.3
 20
454.1
 10
164.5
 20
454.7
 10
165.7
 20
455.5
 10
166.7
 20
456.7
 10
167.5
 20
457.9
 10
168.1
 20
459.1
 10
168.3
 20
460.5
 10
164.3
 20
460.5
 10
163.5
 20
458.5
 10
162.7
 20
457.7
 10
161.5
 20
457.1
 10
160.3
 20
456.9
 10
159.3
 20
457.1
 10
158.3
 20
457.5
 10
157.5
 20
458.1
 10
156.3
 20
460.1
 10
156.1
 20
461.3
 10
155.7
 20
462.5
 10
155.7
 20
465.3
 10
156.1
 20
466.5
 10
156.3
 20
467.7
 10
157.5
 20
469.7
 10
158.3
 20
470.3
 10
159.3
 20
470.7
 10
160.3
 20
470.9
 10
161.7
 20
470.7
 10
162.7
 20
470.1
 10
163.5
 20
469.3
 10
164.3
 20
467.3
 10
168.3
 20
467.3
 10
167.9
 20
468.5
 10
167.3
 20
469.9
 10
166.5
 20
471.1
 10
165.7
 20
472.1
 10
163.3
 20
473.7
 10
161.9
 20
473.9
 10
158.7
 20
473.9
 10
157.3
 20
473.7
 10
155.9
 20
473.1
 10
154.7
 20
472.1
 10
153.9
 20
471.1
 10
153.1
 20
469.9
 10
152.5
 20
468.5
 10
151.9
 20
466.9
 10
151.7
 20
465.5
  0
LWPOLYLINE
  5
F2
330
1F
100
AcDbEntity
  8
DM_Label
100
AcDbPolyline
 90
       30
 70
     1
 43
0.0
 10
124.3
 20
463.3
 10
125.3
 20
463.9
 10
126.3
 20
464.7
 10
126.9
 20
465.7
 10
127.3
 20
466.7
 10
127.3
 20
469.3
 10
126.7
 20
470.3
 10
126.1
 20
471.5
 10
125.3
 20
472.3
 10
124.3
 20
472.9
 10
123.1
 20
473.5
 10
120.7
 20
473.9
 10
111.7
 20
473.9
 10
111.7
 20
453.9
 10
115.7
 20
453.9
 10
115.7
 20
461.5
 10
121.5
 20
461.5
 10
122.3
 20
461.1
 10
123.1
 20
459.5
 10
123.3
 20
456.5
 10
123.5
 20
455.5
 10
124.1
 20
453.9
 10
128.3
 20
453.9
 10
127.7
 20
454.9
 10
127.3
 20
456.5
 10
127.1
 20
459.5
 10
126.9
 20
460.5
 10
126.5
 20
461.3
 10
125.9
 20
462.1
 10
125.3
 20
462.7
  0
LWPOLYLINE
  5
F3
330
1F
100
AcDbEntity
  8
DM_Label
100
AcDbPolyline
 90
       71
 70
     1
 43
0.0
 10
1008.4
 20
1350.5
 10
1008.75
 20
1353.3
 10
1009.8
 20
1355.4
 10
1011.2
 20
1357.5
 10
1012.95
 20
1359.25
 10
1015.05
 20
1360.65
 10
1017.5
 20
1361.35
 10
1019.95
 20
1361.7
 10
1026.6
 20
1361.7
 10
1028.7
 20
1361.0
 10
1030.8
 20
1359.95
 10
1032.55
 20
1358.55
 10
1033.95
 20
1356.8
 10
1034.65
 20
1354.7
 10
1035.0
 20
1352.25
 10
1035.0
 20
1350.5
 10
1034.3
 20
1348.75
 10
1033.25
 20
1347.35
 10
1030.45
 20
1345.25
 10
1032.2
 20
1344.55
 10
1035.0
 20
1342.45
 10
1036.05
 20
1340.7
 10
1036.75
 20
1338.95
 10
1036.75
 20
1337.2
 10
1036.4
 20
1334.4
 10
1035.7
 20
1332.3
 10
1033.95
 20
1330.2
 10
1032.2
 20
1328.8
 10
1030.1
 20
1327.75
 10
1027.65
 20
1326.7
 10
1020.3
 20
1326.7
 10
1017.5
 20
1327.05
 10
1015.05
 20
1328.1
 10
1012.95
 20
1329.5
 10
1011.2
 20
1331.25
 10
1009.45
 20
1333.35
 10
1008.4
 20
1335.8
 10
1007.7
 20
1338.25
 10
1014.0
 20
1338.25
 10
1014.7
 20
1336.5
 10
1015.75
 20
1334.75
 10
1017.15
 20
1333.35
 10
1018.9
 20
1332.65
 10
1021.0
 20
1331.95
 10
1024.5
 20
1331.95
 10
1028.0
 20
1333.35
 10
1029.4
 20
1334.4
 10
1030.1
 20
1335.8
 10
1030.45
 20
1337.9
 10
1030.1
 20
1339.3
 10
1029.05
 20
1340.7
 10
1027.65
 20
1341.75
 10
1026.25
 20
1342.45
 10
1017.5
 20
1342.45
 10
1017.5
 20
1347.0
 10
1023.45
 20
1347.0
 10
1024.85
 20
1347.35
 10
1027.65
 20
1348.75
 10
1028.35
 20
1350.15
 10
1028.7
 20
1351.9
 10
1028.35
 20
1353.3
 10
1027.3
 20
1354.7
 10
1026.25
 20
1355.4
 10
1024.5
 20
1356.1
 10
1023.1
 20
1356.45
 10
1019.95
 20
1356.45
 10
1018.2
 20
1355.75
 10
1016.8
 20
1355.05
 10
1015.4
 20
1354.0
 10
1014.35
 20
1352.6
 10
1014.0
 20
1350.5
  0
LWPOLYLINE
  5
F4
330
1F
100
AcDbEntity
  8
DM_Label
100
AcDbPolyline
 90
       30
 70
     1
 43
0.0
 10
935.7
 20
-286.964
 10
935.7
 20
-251.964
 10
951.45
 20
-251.964
 10
955.65
 20
-252.664
 10
957.75
 20
-253.714
 10
959.5
 20
-254.764
 10
960.9
 20
-256.164
 10
961.95
 20
-258.264
 10
963.0
 20
-260.014
 10
963.0
 20
-264.564
 10
962.3000000000001
 20
-266.314
 10
961.25
 20
-268.064
 10
959.5
 20
-269.464
 10
957.75
 20
-270.514
 10
959.5
 20
-271.564
 10
960.5500000000001
 20
-272.614
 10
961.6
 20
-274.014
 10
962.3000000000001
 20
-275.414
 10
962.65
 20
-277.164
 10
963.0
 20
-282.414
 10
963.7
 20
-285.214
 10
964.75
 20
-286.964
 10
957.4
 20
-286.964
 10
956.35
 20
-284.164
 10
956.0
 20
-282.414
 10
955.65
 20
-277.164
 10
954.25
 20
-274.364
 10
952.85
 20
-273.664
 10
942.7
 20
-273.664
 10
942.7
 20
-286.964
  0
LWPOLYLINE
  5
F5
330
1F
100
AcDbEntity
  8
DM_Label
100
AcDbPolyline
 90
       11
 70
     1
 43
0.0
 10
944.7
 20
1345.95
 10
944.7
 20
1355.75
 10
954.85
 20
1355.75
 10
956.25
 20
1354.7
 10
956.95
 20
1353.65
 10
957.65
 20
1352.25
 10
957.65
 20
1349.45
 10
956.95
 20
1348.05
 10
956.25
 20
1347.0
 10
954.85
 20
1346.3
 10
953.45
 20
1345.95
  0
LWPOLYLINE
  5
F6
330
1F
100
AcDbEntity
  8
DM_Label
100
AcDbPolyline
 90
       11
 70
     1
 43
0.0
 10
1023.2
 20
-286.964
 10
1023.2
 20
-278.914
 10
1005.7
 20
-278.914
 10
1005.7
 20
-274.014
 10
1022.15
 20
-251.964
 10
1029.5
 20
-251.964
 10
1029.5
 20
-273.664
 10
1034.75
 20
-273.664
 10
1034.75
 20
-278.914
 10
1029.5
 20
-278.914
 10
1029.5
 20
-286.964
  0
LWPOLYLINE
  5
F7
330
1F
100
AcDbEntity
  8
DM_Label
100
AcDbPolyline
 90
       11
 70
     1
 43
0.0
 10
942.7
 20
-267.714
 10
942.7
 20
-257.914
 10
952.85
 20
-257.914
 10
954.25
 20
-258.964
 10
954.95
 20
-260.014
 10
955.65
 20
-261.414
 10
955.65
 20
-264.214
 10
954.95
 20
-265.614
 10
954.25
 20
-266.664
 10
952.85
 20
-267.364
 10
951.45
 20
-267.714
  0
LWPOLYLINE
  5
F8
330
1F
100
AcDbEntity
  8
DM_Label
100
AcDbPolyline
 90
       10
 70
     1
 43
0.0
 10
970.7
 20
-286.964
 10
970.7
 20
-251.964
 10
999.75
 20
-251.964
 10
999.75
 20
-257.914
 10
977.7
 20
-257.914
 10
977.7
 20
-266.664
 10
996.95
 20
-266.664
 10
996.95
 20
-272.264
 10
977.7
 20
-272.264
 10
977.7
 20
-286.964
  0
LWPOLYLINE
  5
F9
330
1F
100
AcDbEntity
  8
DM_Label
100
AcDbPolyline
 90
       30
 70
     1
 43
0.0
 10
329.875
 20
1309.8
 10
329.875
 20
1344.8
 10
345.625
 20
1344.8
 10
349.825
 20
1344.1
 10
351.925
 20
1343.05
 10
353.675
 20
1342.0
 10
355.075
 20
1340.6
 10
356.125
 20
1338.5
 10
357.175
 20
1336.75
 10
357.175
 20
1332.2
 10
356.475
 20
1330.45
 10
355.425
 20
1328.7
 10
353.675
 20
1327.3
 10
351.925
 20
1326.25
 10
353.675
 20
1325.2
 10
354.725
 20
1324.15
 10
355.775
 20
1322.75
 10
356.475
 20
1321.35
 10
356.825
 20
1319.6
 10
357.175
 20
1314.35
 10
357.875
 20
1311.55
 10
358.925
 20
1309.8
 10
351.575
 20
1309.8
 10
350.525
 20
1312.6
 10
350.175
 20
1314.35
 10
349.825
 20
1319.6
 10
348.425
 20
1322.4
 10
347.025
 20
1323.1
 10
336.875
 20
1323.1
 10
336.875
 20
1309.8
  0
LWPOLYLINE
  5
FA
330
1F
100
AcDbEntity
  8
DM_Label
100
AcDbPolyline
 90
       11
 70
     1
 43
0.0
 10
336.875
 20
-252.15
 10
336.875
 20
-242.35
 10
347.025
 20
-242.35
 10
348.425
 20
-243.4
 10
349.125
 20
-244.45
 10
349.825
 20
-245.85
 10
349.825
 20
-248.65
 10
349.125
 20
-250.05
 10
348.425
 20
-251.1
 10
347.025
 20
-251.8
 10
345.625
 20
-252.15
  0
LWPOLYLINE
  5
FB
330
1F
100
AcDbEntity
  8
DM_RFPAD
100
AcDbPolyline
 90
        4
 70
     1
 43
0.0
 10
92.5
 20
639.0
 10
92.5
 20
737.0
 10
190.5
 20
737.0
 10
190.5
 20
639.0
  0
LWPOLYLINE
  5
FD
330
1F
100
AcDbEntity
  8
DM_RFPAD
100
AcDbPolyline
 90
        4
 70
     1
 43
0.0
 10
936.9
 20
-243.332
 10
936.9
 20
-145.332
 10
1034.9
 20
-145.332
 10
1034.9
 20
-243.332
  0
LWPOLYLINE
  5
FE
330
1F
100
AcDbEntity
  8
DM_RFPAD
100
AcDbPolyline
 90
        4
 70
     1
 43
0.0
 10
934.9
 20
-394.332
 10
934.9
 20
-294.332
 10
1034.9
 20
-294.332
 10
1034.9
 20
-394.332
  0
LWPOLYLINE
  5
FF
330
1F
100
AcDbEntity
  8
DM_RFPAD
100
AcDbPolyline
 90
        4
 70
     1
 43
0.0
 10
934.9
 20
1370.332
 10
934.9
 20
1470.332
 10
1034.9
 20
1470.332
 10
1034.9
 20
1370.332
  0
LWPOLYLINE
  5
100
330
1F
100
AcDbEntity
  8
DM_RFPAD
100
AcDbPolyline
 90
        4
 70
     1
 43
0.0
 10
327.3
 20
-394.332
 10
327.3
 20
-294.332
 10
427.3
 20
-294.332
 10
427.3
 20
-394.332
  0
LWPOLYLINE
  5
101
330
1F
100
AcDbEntity
  8
DM_RFPAD
100
AcDbPolyline
 90
        4
 70
     1
 43
0.0
 10
327.3
 20
1370.332
 10
327.3
 20
1470.332
 10
427.3
 20
1470.332
 10
427.3
 20
1370.332
  0
LWPOLYLINE
  5
102
330
1F
100
AcDbEntity
  8
DM_RFPAD
100
AcDbPolyline
 90
        4
 70
     1
 43
0.0
 10
92.5
 20
339.0
 10
92.5
 20
437.0
 10
190.5
 20
437.0
 10
190.5
 20
339.0
  0
LWPOLYLINE
  5
103
330
1F
100
AcDbEntity
  8
DM_RFPAD
100
AcDbPolyline
 90
        4
 70
     1
 43
0.0
 10
178.3
 20
1372.332
 10
178.3
 20
1470.332
 10
276.3
 20
1470.332
 10
276.3
 20
1372.332
  0
LWPOLYLINE
  5
104
330
1F
100
AcDbEntity
  8
DM_RFPAD
100
AcDbPolyline
 90
        4
 70
     1
 43
0.0
 10
178.3
 20
-394.332
 10
178.3
 20
-296.332
 10
276.3
 20
-296.332
 10
276.3
 20
-394.332
  0
LWPOLYLINE
  5
105
330
1F
100
AcDbEntity
  8
DM_RFPAD
100
AcDbPolyline
 90
        4
 70
     1
 43
0.0
 10
936.9
 20
1221.332
 10
936.9
 20
1319.332
 10
1034.9
 20
1319.332
 10
1034.9
 20
1221.332
  0
LWPOLYLINE
  5
106
330
1F
100
AcDbEntity
  8
DM_RFPAD
100
AcDbPolyline
 90
        4
 70
     1
 43
0.0
 10
91.5
 20
488.0
 10
91.5
 20
588.0
 10
191.5
 20
588.0
 10
191.5
 20
488.0
  0
LWPOLYLINE
  5
107
330
1F
100
AcDbEntity
  8
DM_BondPAD
100
AcDbPolyline
 90
        4
 70
     1
 43
0.0
 10
182.3
 20
1376.332
 10
182.3
 20
1466.332
 10
272.3
 20
1466.332
 10
272.3
 20
1376.332
  0
LWPOLYLINE
  5
109
330
1F
100
AcDbEntity
  8
DM_BondPAD
100
AcDbPolyline
 90
        4
 70
     1
 43
0.0
 10
331.3
 20
-390.332
 10
331.3
 20
-298.332
 10
423.3
 20
-298.332
 10
423.3
 20
-390.332
  0
LWPOLYLINE
  5
10A
330
1F
100
AcDbEntity
  8
DM_BondPAD
100
AcDbPolyline
 90
        4
 70
     1
 43
0.0
 10
938.9
 20
-390.332
 10
938.9
 20
-298.332
 10
1030.9
 20
-298.332
 10
1030.9
 20
-390.332
  0
LWPOLYLINE
  5
10B
330
1F
100
AcDbEntity
  8
DM_BondPAD
100
AcDbPolyline
 90
        4
 70
     1
 43
0.0
 10
182.3
 20
-390.332
 10
182.3
 20
-300.332
 10
272.3
 20
-300.332
 10
272.3
 20
-390.332
  0
LWPOLYLINE
  5
10C
330
1F
100
AcDbEntity
  8
DM_BondPAD
100
AcDbPolyline
 90
        4
 70
     1
 43
0.0
 10
96.5
 20
343.0
 10
96.5
 20
433.0
 10
186.5
 20
433.0
 10
186.5
 20
343.0
  0
LWPOLYLINE
  5
10D
330
1F
100
AcDbEntity
  8
DM_BondPAD
100
AcDbPolyline
 90
        4
 70
     1
 43
0.0
 10
940.9
 20
1225.332
 10
940.9
 20
1315.332
 10
1030.9
 20
1315.332
 10
1030.9
 20
1225.332
  0
LWPOLYLINE
  5
10E
330
1F
100
AcDbEntity
  8
DM_BondPAD
100
AcDbPolyline
 90
        4
 70
     1
 43
0.0
 10
96.5
 20
643.0
 10
96.5
 20
733.0
 10
186.5
 20
733.0
 10
186.5
 20
643.0
  0
LWPOLYLINE
  5
10F
330
1F
100
AcDbEntity
  8
DM_BondPAD
100
AcDbPolyline
 90
        4
 70
     1
 43
0.0
 10
331.3
 20
1374.332
 10
331.3
 20
1466.332
 10
423.3
 20
1466.332
 10
423.3
 20
1374.332
  0
LWPOLYLINE
  5
110
330
1F
100
AcDbEntity
  8
DM_BondPAD
100
AcDbPolyline
 90
        4
 70
     1
 43
0.0
 10
938.9
 20
1374.332
 10
938.9
 20
1466.332
 10
1030.9
 20
1466.332
 10
1030.9
 20
1374.332
  0
LWPOLYLINE
  5
111
330
1F
100
AcDbEntity
  8
DM_BondPAD
100
AcDbPolyline
 90
        4
 70
     1
 43
0.0
 10
940.9
 20
-239.332
 10
940.9
 20
-149.332
 10
1030.9
 20
-149.332
 10
1030.9
 20
-239.332
  0
LWPOLYLINE
  5
112
330
1F
100
AcDbEntity
  8
DM_BondPAD
100
AcDbPolyline
 90
        4
 70
     1
 43
0.0
 10
95.5
 20
492.0
 10
95.5
 20
584.0
 10
187.5
 20
584.0
 10
187.5
 20
492.0
  0
LWPOLYLINE
  5
113
330
1F
100
AcDbEntity
  8
noDRC
100
AcDbPolyline
 90
        4
 70
     1
 43
0.0
 10
107.0
 20
451.9
 10
107.0
 20
478.8
 10
171.0
 20
478.8
 10
171.0
 20
451.9
  0
LWPOLYLINE
  5
115
330
1F
100
AcDbEntity
  8
BACKVIA
100
AcDbPolyline
 90
       64
 70
     1
 43
0.0
 10
958.1
 20
1160.132
 10
958.196
 20
1158.172
 10
958.484
 20
1156.23
 10
958.961
 20
1154.326
 10
959.6220000000001
 20
1152.478
 10
960.462
 20
1150.704
 10
961.471
 20
1149.021
 10
962.64
 20
1147.444
 10
963.958
 20
1145.99
 10
965.412
 20
1144.672
 10
966.989
 20
1143.503
 10
968.672
 20
1142.494
 10
970.446
 20
1141.654
 10
972.294
 20
1140.993
 10
974.198
 20
1140.516
 10
976.14
 20
1140.228
 10
978.1
 20
1140.132
 10
980.0600000000001
 20
1140.228
 10
982.0020000000001
 20
1140.516
 10
983.9060000000001
 20
1140.993
 10
985.754
 20
1141.654
 10
987.528
 20
1142.494
 10
989.211
 20
1143.503
 10
990.788
 20
1144.672
 10
992.2420000000001
 20
1145.99
 10
993.5600000000001
 20
1147.444
 10
994.729
 20
1149.021
 10
995.738
 20
1150.704
 10
996.578
 20
1152.478
 10
997.239
 20
1154.326
 10
997.716
 20
1156.23
 10
998.004
 20
1158.172
 10
998.1
 20
1160.132
 10
998.004
 20
1162.092
 10
997.716
 20
1164.034
 10
997.239
 20
1165.938
 10
996.578
 20
1167.786
 10
995.738
 20
1169.56
 10
994.729
 20
1171.243
 10
993.5600000000001
 20
1172.82
 10
992.2420000000001
 20
1174.274
 10
990.788
 20
1175.592
 10
989.211
 20
1176.761
 10
987.528
 20
1177.77
 10
985.754
 20
1178.61
 10
983.9060000000001
 20
1179.271
 10
982.0020000000001
 20
1179.748
 10
980.0600000000001
 20
1180.036
 10
978.1
 20
1180.132
 10
976.14
 20
1180.036
 10
974.198
 20
1179.748
 10
972.294
 20
1179.271
 10
970.446
 20
1178.61
 10
968.672
 20
1177.77
 10
966.989
 20
1176.761
 10
965.412
 20
1175.592
 10
963.958
 20
1174.274
 10
962.64
 20
1172.82
 10
961.471
 20
1171.243
 10
960.462
 20
1169.56
 10
959.6220000000001
 20
1167.786
 10
958.961
 20
1165.938
 10
958.484
 20
1164.034
 10
958.196
 20
1162.092
  0
LWPOLYLINE
  5
117
330
1F
100
AcDbEntity
  8
BACKVIA
100
AcDbPolyline
 90
       64
 70
     1
 43
0.0
 10
215.1
 20
1311.132
 10
215.196
 20
1309.172
 10
215.484
 20
1307.23
 10
215.961
 20
1305.326
 10
216.622
 20
1303.478
 10
217.462
 20
1301.704
 10
218.471
 20
1300.021
 10
219.64
 20
1298.444
 10
220.958
 20
1296.99
 10
222.412
 20
1295.672
 10
223.989
 20
1294.503
 10
225.672
 20
1293.494
 10
227.446
 20
1292.654
 10
229.294
 20
1291.993
 10
231.198
 20
1291.516
 10
233.14
 20
1291.228
 10
235.1
 20
1291.132
 10
237.06
 20
1291.228
 10
239.002
 20
1291.516
 10
240.906
 20
1291.993
 10
242.754
 20
1292.654
 10
244.528
 20
1293.494
 10
246.211
 20
1294.503
 10
247.788
 20
1295.672
 10
249.242
 20
1296.99
 10
250.56
 20
1298.444
 10
251.729
 20
1300.021
 10
252.738
 20
1301.704
 10
253.578
 20
1303.478
 10
254.239
 20
1305.326
 10
254.716
 20
1307.23
 10
255.004
 20
1309.172
 10
255.1
 20
1311.132
 10
255.004
 20
1313.092
 10
254.716
 20
1315.034
 10
254.239
 20
1316.938
 10
253.578
 20
1318.786
 10
252.738
 20
1320.56
 10
251.729
 20
1322.243
 10
250.56
 20
1323.82
 10
249.242
 20
1325.274
 10
247.788
 20
1326.592
 10
246.211
 20
1327.761
 10
244.528
 20
1328.77
 10
242.754
 20
1329.61
 10
240.906
 20
1330.271
 10
239.002
 20
1330.748
 10
237.06
 20
1331.036
 10
235.1
 20
1331.132
 10
233.14
 20
1331.036
 10
231.198
 20
1330.748
 10
229.294
 20
1330.271
 10
227.446
 20
1329.61
 10
225.672
 20
1328.77
 10
223.989
 20
1327.761
 10
222.412
 20
1326.592
 10
220.958
 20
1325.274
 10
219.64
 20
1323.82
 10
218.471
 20
1322.243
 10
217.462
 20
1320.56
 10
216.622
 20
1318.786
 10
215.961
 20
1316.938
 10
215.484
 20
1315.034
 10
215.196
 20
1313.092
  0
LWPOLYLINE
  5
118
330
1F
100
AcDbEntity
  8
BACKVIA
100
AcDbPolyline
 90
       64
 70
     1
 43
0.0
 10
215.1
 20
-235.132
 10
215.196
 20
-237.092
 10
215.484
 20
-239.034
 10
215.961
 20
-240.938
 10
216.622
 20
-242.786
 10
217.462
 20
-244.56
 10
218.471
 20
-246.243
 10
219.64
 20
-247.82
 10
220.958
 20
-249.274
 10
222.412
 20
-250.592
 10
223.989
 20
-251.761
 10
225.672
 20
-252.77
 10
227.446
 20
-253.61
 10
229.294
 20
-254.271
 10
231.198
 20
-254.748
 10
233.14
 20
-255.036
 10
235.1
 20
-255.132
 10
237.06
 20
-255.036
 10
239.002
 20
-254.748
 10
240.906
 20
-254.271
 10
242.754
 20
-253.61
 10
244.528
 20
-252.77
 10
246.211
 20
-251.761
 10
247.788
 20
-250.592
 10
249.242
 20
-249.274
 10
250.56
 20
-247.82
 10
251.729
 20
-246.243
 10
252.738
 20
-244.56
 10
253.578
 20
-242.786
 10
254.239
 20
-240.938
 10
254.716
 20
-239.034
 10
255.004
 20
-237.092
 10
255.1
 20
-235.132
 10
255.004
 20
-233.172
 10
254.716
 20
-231.23
 10
254.239
 20
-229.326
 10
253.578
 20
-227.478
 10
252.738
 20
-225.704
 10
251.729
 20
-224.021
 10
250.56
 20
-222.444
 10
249.242
 20
-220.99
 10
247.788
 20
-219.672
 10
246.211
 20
-218.503
 10
244.528
 20
-217.494
 10
242.754
 20
-216.654
 10
240.906
 20
-215.993
 10
239.002
 20
-215.516
 10
237.06
 20
-215.228
 10
235.1
 20
-215.132
 10
233.14
 20
-215.228
 10
231.198
 20
-215.516
 10
229.294
 20
-215.993
 10
227.446
 20
-216.654
 10
225.672
 20
-217.494
 10
223.989
 20
-218.503
 10
222.412
 20
-219.672
 10
220.958
 20
-220.99
 10
219.64
 20
-222.444
 10
218.471
 20
-224.021
 10
217.462
 20
-225.704
 10
216.622
 20
-227.478
 10
215.961
 20
-229.326
 10
215.484
 20
-231.23
 10
215.196
 20
-233.172
  0
LWPOLYLINE
  5
119
330
1F
100
AcDbEntity
  8
BACKVIA
100
AcDbPolyline
 90
       64
 70
     1
 43
0.0
 10
129.3
 20
277.8
 10
129.396
 20
275.84
 10
129.684
 20
273.898
 10
130.161
 20
271.994
 10
130.822
 20
270.146
 10
131.662
 20
268.372
 10
132.671
 20
266.689
 10
133.84
 20
265.112
 10
135.158
 20
263.658
 10
136.612
 20
262.34
 10
138.189
 20
261.171
 10
139.872
 20
260.162
 10
141.646
 20
259.322
 10
143.494
 20
258.661
 10
145.398
 20
258.184
 10
147.34
 20
257.896
 10
149.3
 20
257.8
 10
151.26
 20
257.896
 10
153.202
 20
258.184
 10
155.106
 20
258.661
 10
156.954
 20
259.322
 10
158.728
 20
260.162
 10
160.411
 20
261.171
 10
161.988
 20
262.34
 10
163.442
 20
263.658
 10
164.76
 20
265.112
 10
165.929
 20
266.689
 10
166.938
 20
268.372
 10
167.778
 20
270.146
 10
168.439
 20
271.994
 10
168.916
 20
273.898
 10
169.204
 20
275.84
 10
169.3
 20
277.8
 10
169.204
 20
279.76
 10
168.916
 20
281.702
 10
168.439
 20
283.606
 10
167.778
 20
285.454
 10
166.938
 20
287.228
 10
165.929
 20
288.911
 10
164.76
 20
290.488
 10
163.442
 20
291.942
 10
161.988
 20
293.26
 10
160.411
 20
294.429
 10
158.728
 20
295.438
 10
156.954
 20
296.278
 10
155.106
 20
296.939
 10
153.202
 20
297.416
 10
151.26
 20
297.704
 10
149.3
 20
297.8
 10
147.34
 20
297.704
 10
145.398
 20
297.416
 10
143.494
 20
296.939
 10
141.646
 20
296.278
 10
139.872
 20
295.438
 10
138.189
 20
294.429
 10
136.612
 20
293.26
 10
135.158
 20
291.942
 10
133.84
 20
290.488
 10
132.671
 20
288.911
 10
131.662
 20
287.228
 10
130.822
 20
285.454
 10
130.161
 20
283.606
 10
129.684
 20
281.702
 10
129.396
 20
279.76
  0
LWPOLYLINE
  5
11A
330
1F
100
AcDbEntity
  8
BACKVIA
100
AcDbPolyline
 90
       64
 70
     1
 43
0.0
 10
958.1
 20
-84.132
 10
958.196
 20
-86.092
 10
958.484
 20
-88.034
 10
958.961
 20
-89.938
 10
959.6220000000001
 20
-91.786
 10
960.462
 20
-93.56
 10
961.471
 20
-95.243
 10
962.64
 20
-96.82000000000001
 10
963.958
 20
-98.274
 10
965.412
 20
-99.592
 10
966.989
 20
-100.761
 10
968.672
 20
-101.77
 10
970.446
 20
-102.61
 10
972.294
 20
-103.271
 10
974.198
 20
-103.748
 10
976.14
 20
-104.036
 10
978.1
 20
-104.132
 10
980.0600000000001
 20
-104.036
 10
982.0020000000001
 20
-103.748
 10
983.9060000000001
 20
-103.271
 10
985.754
 20
-102.61
 10
987.528
 20
-101.77
 10
989.211
 20
-100.761
 10
990.788
 20
-99.592
 10
992.2420000000001
 20
-98.274
 10
993.5600000000001
 20
-96.82000000000001
 10
994.729
 20
-95.243
 10
995.738
 20
-93.56
 10
996.578
 20
-91.786
 10
997.239
 20
-89.938
 10
997.716
 20
-88.034
 10
998.004
 20
-86.092
 10
998.1
 20
-84.132
 10
998.004
 20
-82.172
 10
997.716
 20
-80.23
 10
997.239
 20
-78.32600000000001
 10
996.578
 20
-76.47800000000001
 10
995.738
 20
-74.70400000000001
 10
994.729
 20
-73.021
 10
993.5600000000001
 20
-71.444
 10
992.2420000000001
 20
-69.99
 10
990.788
 20
-68.672
 10
989.211
 20
-67.503
 10
987.528
 20
-66.494
 10
985.754
 20
-65.654
 10
983.9060000000001
 20
-64.993
 10
982.0020000000001
 20
-64.516
 10
980.0600000000001
 20
-64.228
 10
978.1
 20
-64.132
 10
976.14
 20
-64.228
 10
974.198
 20
-64.516
 10
972.294
 20
-64.993
 10
970.446
 20
-65.654
 10
968.672
 20
-66.494
 10
966.989
 20
-67.503
 10
965.412
 20
-68.672
 10
963.958
 20
-69.99
 10
962.64
 20
-71.444
 10
961.471
 20
-73.021
 10
960.462
 20
-74.70400000000001
 10
959.6220000000001
 20
-76.47800000000001
 10
958.961
 20
-78.32600000000001
 10
958.484
 20
-80.23
 10
958.196
 20
-82.172
  0
LWPOLYLINE
  5
11B
330
1F
100
AcDbEntity
  8
BACKVIA
100
AcDbPolyline
 90
       64
 70
     1
 43
0.0
 10
129.3
 20
798.2
 10
129.396
 20
796.24
 10
129.684
 20
794.298
 10
130.161
 20
792.394
 10
130.822
 20
790.546
 10
131.662
 20
788.772
 10
132.671
 20
787.089
 10
133.84
 20
785.5120000000001
 10
135.158
 20
784.058
 10
136.612
 20
782.74
 10
138.189
 20
781.571
 10
139.872
 20
780.562
 10
141.646
 20
779.722
 10
143.494
 20
779.061
 10
145.398
 20
778.5840000000001
 10
147.34
 20
778.296
 10
149.3
 20
778.2
 10
151.26
 20
778.296
 10
153.202
 20
778.5840000000001
 10
155.106
 20
779.061
 10
156.954
 20
779.722
 10
158.728
 20
780.562
 10
160.411
 20
781.571
 10
161.988
 20
782.74
 10
163.442
 20
784.058
 10
164.76
 20
785.5120000000001
 10
165.929
 20
787.089
 10
166.938
 20
788.772
 10
167.778
 20
790.546
 10
168.439
 20
792.394
 10
168.916
 20
794.298
 10
169.204
 20
796.24
 10
169.3
 20
798.2
 10
169.204
 20
800.16
 10
168.916
 20
802.102
 10
168.439
 20
804.006
 10
167.778
 20
805.854
 10
166.938
 20
807.628
 10
165.929
 20
809.311
 10
164.76
 20
810.888
 10
163.442
 20
812.342
 10
161.988
 20
813.66
 10
160.411
 20
814.8290000000001
 10
158.728
 20
815.838
 10
156.954
 20
816.678
 10
155.106
 20
817.339
 10
153.202
 20
817.816
 10
151.26
 20
818.104
 10
149.3
 20
818.2
 10
147.34
 20
818.104
 10
145.398
 20
817.816
 10
143.494
 20
817.339
 10
141.646
 20
816.678
 10
139.872
 20
815.838
 10
138.189
 20
814.8290000000001
 10
136.612
 20
813.66
 10
135.158
 20
812.342
 10
133.84
 20
810.888
 10
132.671
 20
809.311
 10
131.662
 20
807.628
 10
130.822
 20
805.854
 10
130.161
 20
804.006
 10
129.684
 20
802.102
 10
129.396
 20
800.16
  0
LWPOLYLINE
  5
11C
330
1F
100
AcDbEntity
  8
MET2
100
AcDbPolyline
 90
        4
 70
     1
 43
0.0
 10
193.9
 20
-276.332
 10
193.9
 20
-193.932
 10
276.3
 20
-193.932
 10
276.3
 20
-276.332
  0
LWPOLYLINE
  5
11E
330
1F
100
AcDbEntity
  8
MET2
100
AcDbPolyline
 90
        4
 70
     1
 43
0.0
 10
179.3
 20
1373.332
 10
179.3
 20
1469.332
 10
275.3
 20
1469.332
 10
275.3
 20
1373.332
  0
LWPOLYLINE
  5
11F
330
1F
100
AcDbEntity
  8
MET2
100
AcDbPolyline
 90
        4
 70
     1
 43
0.0
 10
93.5
 20
640.0
 10
93.5
 20
736.0
 10
189.5
 20
736.0
 10
189.5
 20
640.0
  0
LWPOLYLINE
  5
120
330
1F
100
AcDbEntity
  8
MET2
100
AcDbPolyline
 90
        4
 70
     1
 43
0.0
 10
108.1
 20
236.6
 10
108.1
 20
319.0
 10
190.5
 20
319.0
 10
190.5
 20
236.6
  0
LWPOLYLINE
  5
121
330
1F
100
AcDbEntity
  8
MET2
100
AcDbPolyline
 90
        4
 70
     1
 43
0.0
 10
179.3
 20
-393.332
 10
179.3
 20
-297.332
 10
275.3
 20
-297.332
 10
275.3
 20
-393.332
  0
LWPOLYLINE
  5
122
330
1F
100
AcDbEntity
  8
MET2
100
AcDbPolyline
 90
        4
 70
     1
 43
0.0
 10
936.9
 20
1118.932
 10
936.9
 20
1201.332
 10
1019.3
 20
1201.332
 10
1019.3
 20
1118.932
  0
LWPOLYLINE
  5
123
330
1F
100
AcDbEntity
  8
MET2
100
AcDbPolyline
 90
        4
 70
     1
 43
0.0
 10
108.1
 20
757.0
 10
108.1
 20
839.4
 10
190.5
 20
839.4
 10
190.5
 20
757.0
  0
LWPOLYLINE
  5
124
330
1F
100
AcDbEntity
  8
MET2
100
AcDbPolyline
 90
        4
 70
     1
 43
0.0
 10
936.9
 20
-125.332
 10
936.9
 20
-42.932
 10
1019.3
 20
-42.932
 10
1019.3
 20
-125.332
  0
LWPOLYLINE
  5
125
330
1F
100
AcDbEntity
  8
MET2
100
AcDbPolyline
 90
        4
 70
     1
 43
0.0
 10
937.9
 20
-242.332
 10
937.9
 20
-146.332
 10
1033.9
 20
-146.332
 10
1033.9
 20
-242.332
  0
LWPOLYLINE
  5
126
330
1F
100
AcDbEntity
  8
MET2
100
AcDbPolyline
 90
        4
 70
     1
 43
0.0
 10
93.5
 20
340.0
 10
93.5
 20
436.0
 10
189.5
 20
436.0
 10
189.5
 20
340.0
  0
LWPOLYLINE
  5
127
330
1F
100
AcDbEntity
  8
MET2
100
AcDbPolyline
 90
        4
 70
     1
 43
0.0
 10
937.9
 20
1222.332
 10
937.9
 20
1318.332
 10
1033.9
 20
1318.332
 10
1033.9
 20
1222.332
  0
LWPOLYLINE
  5
128
330
1F
100
AcDbEntity
  8
MET2
100
AcDbPolyline
 90
        4
 70
     1
 43
0.0
 10
193.9
 20
1269.932
 10
193.9
 20
1352.332
 10
276.3
 20
1352.332
 10
276.3
 20
1269.932
  0
LWPOLYLINE
  5
129
330
1F
100
AcDbEntity
  8
MET2
100
AcDbPolyline
 90
        4
 70
     1
 43
0.0
 10
935.9
 20
-393.332
 10
1033.9
 20
-393.332
 10
1033.9
 20
-295.332
 10
935.9
 20
-295.332
  0
LWPOLYLINE
  5
12A
330
1F
100
AcDbEntity
  8
VIA2
100
AcDbPolyline
 90
        4
 70
     1
 43
0.0
 10
18.0
 20
-424.0
 10
18.0
 20
1500.0
 10
64.0
 20
1500.0
 10
64.0
 20
-424.0
  0
LWPOLYLINE
  5
12C
330
1F
100
AcDbEntity
  8
VIA2
100
AcDbPolyline
 90
        4
 70
     1
 43
0.0
 10
1065.0
 20
-424.0
 10
1065.0
 20
1500.0
 10
1111.0
 20
1500.0
 10
1111.0
 20
-424.0
  0
LWPOLYLINE
  5
12D
330
1F
100
AcDbEntity
  8
VIA2
100
AcDbPolyline
 90
        4
 70
     1
 43
0.0
 10
18.0
 20
1500.0
 10
18.0
 20
1546.0
 10
1111.0
 20
1546.0
 10
1111.0
 20
1500.0
  0
LWPOLYLINE
  5
12E
330
1F
100
AcDbEntity
  8
VIA2
100
AcDbPolyline
 90
        4
 70
     1
 43
0.0
 10
18.0
 20
-470.0
 10
18.0
 20
-424.0
 10
1111.0
 20
-424.0
 10
1111.0
 20
-470.0
  0
LWPOLYLINE
  5
12F
330
1F
100
AcDbEntity
  8
VIA2
100
AcDbPolyline
 90
        4
 70
     1
 43
0.0
 10
938.9
 20
-241.332
 10
938.9
 20
-147.332
 10
1032.9
 20
-147.332
 10
1032.9
 20
-241.332
  0
LWPOLYLINE
  5
130
330
1F
100
AcDbEntity
  8
VIA2
100
AcDbPolyline
 90
        4
 70
     1
 43
0.0
 10
937.6
 20
1119.632
 10
937.6
 20
1200.632
 10
1018.6
 20
1200.632
 10
1018.6
 20
1119.632
  0
LWPOLYLINE
  5
131
330
1F
100
AcDbEntity
  8
VIA2
100
AcDbPolyline
 90
        4
 70
     1
 43
0.0
 10
180.3
 20
1374.332
 10
180.3
 20
1468.332
 10
274.3
 20
1468.332
 10
274.3
 20
1374.332
  0
LWPOLYLINE
  5
132
330
1F
100
AcDbEntity
  8
VIA2
100
AcDbPolyline
 90
        4
 70
     1
 43
0.0
 10
94.5
 20
341.0
 10
94.5
 20
435.0
 10
188.5
 20
435.0
 10
188.5
 20
341.0
  0
LWPOLYLINE
  5
133
330
1F
100
AcDbEntity
  8
VIA2
100
AcDbPolyline
 90
        4
 70
     1
 43
0.0
 10
108.8
 20
237.3
 10
108.8
 20
318.3
 10
189.8
 20
318.3
 10
189.8
 20
237.3
  0
LWPOLYLINE
  5
134
330
1F
100
AcDbEntity
  8
VIA2
100
AcDbPolyline
 90
        4
 70
     1
 43
0.0
 10
194.6
 20
1270.632
 10
194.6
 20
1351.632
 10
275.6
 20
1351.632
 10
275.6
 20
1270.632
  0
LWPOLYLINE
  5
135
330
1F
100
AcDbEntity
  8
VIA2
100
AcDbPolyline
 90
        4
 70
     1
 43
0.0
 10
108.8
 20
757.7
 10
108.8
 20
838.7
 10
189.8
 20
838.7
 10
189.8
 20
757.7
  0
LWPOLYLINE
  5
136
330
1F
100
AcDbEntity
  8
VIA2
100
AcDbPolyline
 90
        4
 70
     1
 43
0.0
 10
180.3
 20
-392.332
 10
180.3
 20
-298.332
 10
274.3
 20
-298.332
 10
274.3
 20
-392.332
  0
LWPOLYLINE
  5
137
330
1F
100
AcDbEntity
  8
VIA2
100
AcDbPolyline
 90
        4
 70
     1
 43
0.0
 10
937.6
 20
-124.632
 10
937.6
 20
-43.63200000000001
 10
1018.6
 20
-43.632
 10
1018.6
 20
-124.632
  0
LWPOLYLINE
  5
138
330
1F
100
AcDbEntity
  8
VIA2
100
AcDbPolyline
 90
        4
 70
     1
 43
0.0
 10
194.6
 20
-275.632
 10
194.6
 20
-194.632
 10
275.6
 20
-194.632
 10
275.6
 20
-275.632
  0
LWPOLYLINE
  5
139
330
1F
100
AcDbEntity
  8
VIA2
100
AcDbPolyline
 90
        4
 70
     1
 43
0.0
 10
94.5
 20
641.0
 10
94.5
 20
735.0
 10
188.5
 20
735.0
 10
188.5
 20
641.0
  0
LWPOLYLINE
  5
13A
330
1F
100
AcDbEntity
  8
VIA2
100
AcDbPolyline
 90
        4
 70
     1
 43
0.0
 10
938.9
 20
1223.332
 10
938.9
 20
1317.332
 10
1032.9
 20
1317.332
 10
1032.9
 20
1223.332
  0
LWPOLYLINE
  5
13B
330
1F
100
AcDbEntity
  8
VIA2
100
AcDbPolyline
 90
        4
 70
     1
 43
0.0
 10
936.9
 20
-392.332
 10
1032.9
 20
-392.332
 10
1032.9
 20
-296.332
 10
936.9
 20
-296.332
  0
ENDSEC
  0
SECTION
  2
OBJECTS
  0
DICTIONARY
  5
C
330
0
100
AcDbDictionary
281
     1
  3
ACAD_DETAILVIEWSTYLE
350
181
  3
ACAD_GROUP
350
D
  3
ACAD_LAYOUT
350
1A
  3
ACAD_MATERIAL
350
43
  3
ACAD_MLEADERSTYLE
350
6B
  3
ACAD_MLINESTYLE
350
17
  3
ACAD_PLOTSETTINGS
350
19
  3
ACAD_PLOTSTYLENAME
350
E
  3
ACAD_SCALELIST
350
47
  3
ACAD_SECTIONVIEWSTYLE
350
182
  3
ACAD_TABLESTYLE
350
69
  3
ACAD_VISUALSTYLE
350
2A
  3
ACDB_RECOMPOSE_DATA
350
17E
  3
AcDbVariableDictionary
350
13E
  0
DICTIONARY
  5
13C
330
8
100
AcDbDictionary
280
     1
281
     1
  3
ACAD_XREC_ROUNDTRIP
360
13D
  0
DICTIONARY
  5
181
102
{ACAD_REACTORS
330
C
102
}
330
C
100
AcDbDictionary
281
     1
  0
DICTIONARY
  5
D
102
{ACAD_REACTORS
330
C
102
}
330
C
100
AcDbDictionary
281
     1
  0
DICTIONARY
  5
1A
102
{ACAD_REACTORS
330
C
102
}
330
C
100
AcDbDictionary
281
     1
  3
*A1
350
1E
  3
*A2
350
26
  3
Model
350
22
  0
DICTIONARY
  5
43
102
{ACAD_REACTORS
330
C
102
}
330
C
100
AcDbDictionary
281
     1
  3
ByBlock
350
45
  3
ByLayer
350
44
  3
Global
350
46
  0
DICTIONARY
  5
6B
102
{ACAD_REACTORS
330
C
102
}
330
C
100
AcDbDictionary
281
     1
  3
Standard
350
6C
  0
DICTIONARY
  5
17
102
{ACAD_REACTORS
330
C
102
}
330
C
100
AcDbDictionary
281
     1
  3
Standard
350
18
  0
DICTIONARY
  5
19
102
{ACAD_REACTORS
330
C
102
}
330
C
100
AcDbDictionary
281
     1
  0
ACDBDICTIONARYWDFLT
  5
E
102
{ACAD_REACTORS
330
C
102
}
330
C
100
AcDbDictionary
281
     1
  3
Normal
350
F
100
AcDbDictionaryWithDefault
340
F
  0
DICTIONARY
  5
47
102
{ACAD_REACTORS
330
C
102
}
330
C
100
AcDbDictionary
281
     1
  3
A0
350
48
  3
A1
350
49
  3
A2
350
4A
  3
A3
350
4B
  3
A4
350
4C
  3
A5
350
4D
  3
A6
350
4E
  3
A7
350
4F
  3
A8
350
50
  3
A9
350
51
  3
B0
350
52
  3
B1
350
53
  3
B2
350
54
  3
B3
350
55
  3
B4
350
56
  3
B5
350
57
  3
B6
350
58
  3
B7
350
59
  3
B8
350
5A
  3
B9
350
5B
  3
C0
350
5C
  3
C1
350
5D
  3
C2
350
5E
  3
C3
350
5F
  3
C4
350
60
  3
C5
350
61
  3
C6
350
62
  3
C7
350
63
  3
C8
350
64
  3
C9
350
65
  3
D0
350
66
  3
D1
350
67
  3
D2
350
68
  0
DICTIONARY
  5
182
102
{ACAD_REACTORS
330
C
102
}
330
C
100
AcDbDictionary
281
     1
  0
DICTIONARY
  5
69
102
{ACAD_REACTORS
330
C
102
}
330
C
100
AcDbDictionary
281
     1
  3
Standard
350
6A
  0
DICTIONARY
  5
2A
102
{ACAD_REACTORS
330
C
102
}
330
C
100
AcDbDictionary
281
     1
  3
2dWireframe
350
2F
  3
Basic
350
32
  3
Brighten
350
36
  3
ColorChange
350
3A
  3
Conceptual
350
34
  3
Dim
350
35
  3
EdgeColorOff
350
3D
  3
Facepattern
350
39
  3
Flat
350
2B
  3
FlatWithEdges
350
2C
  3
Gouraud
350
2D
  3
GouraudWithEdges
350
2E
  3
Hidden
350
31
  3
JitterOff
350
3B
  3
Linepattern
350
38
  3
OverhangOff
350
3C
  3
Realistic
350
33
  3
Shaded
350
42
  3
Shaded with edges
350
41
  3
Shades of Gray
350
3E
  3
Sketchy
350
3F
  3
Thicken
350
37
  3
Wireframe
350
30
  3
X-Ray
350
40
  0
XRECORD
  5
17E
102
{ACAD_REACTORS
330
C
102
}
330
C
100
AcDbXrecord
280
     1
 90
        1
330
6A
  0
DICTIONARY
  5
13E
102
{ACAD_REACTORS
330
C
102
}
330
C
100
AcDbDictionary
281
     1
  3
CANNOSCALE
350
13F
  3
CMLEADERSTYLE
350
180
  3
CTABLESTYLE
350
17F
  3
MSLTSCALE
350
140
  3
XCLIPFRAME
350
141
  0
XRECORD
  5
13D
102
{ACAD_REACTORS
330
13C
102
}
330
13C
100
AcDbXrecord
280
     1
102
VTR_0.000_0.000_1.000_1.000_VISUALSTYLE
340
2F
102
VTR_0.000_0.000_1.000_1.000_GRIDDISPLAY
 70
     3
102
VTR_0.000_0.000_1.000_1.000_GRIDMAJOR
 70
     5
102
VTR_0.000_0.000_1.000_1.000_DEFAULTLIGHTING
280
     1
102
VTR_0.000_0.000_1.000_1.000_DEFAULTLIGHTINGTYPE
 70
     1
102
VTR_0.000_0.000_1.000_1.000_BRIGHTNESS
141
0.0
102
VTR_0.000_0.000_1.000_1.000_CONTRAST
142
0.0
  0
LAYOUT
  5
1E
102
{ACAD_REACTORS
330
1A
102
}
330
1A
100
AcDbPlotSettings
  1

  2
none_device
  4

  6

 40
0.0
 41
0.0
 42
0.0
 43
0.0
 44
0.0
 45
0.0
 46
0.0
 47
0.0
 48
0.0
 49
0.0
140
0.0
141
0.0
142
1.0
143
1.0
 70
   688
 72
     0
 73
     0
 74
     5
  7

 75
    16
 76
     0
 77
     2
 78
   300
147
1.0
148
0.0
149
0.0
100
AcDbLayout
  1

 70
     1
 71
     1
 10
0.0
 20
0.0
 11
12.0
 21
9.0
 12
0.0
 22
0.0
 32
0.0
 14
1.000000000000000E+20
 24
1.000000000000000E+20
 34
1.000000000000000E+20
 15
-1.000000000000000E+20
 25
-1.000000000000000E+20
 35
-1.000000000000000E+20
146
0.0
 13
0.0
 23
0.0
 33
0.0
 16
1.0
 26
0.0
 36
0.0
 17
0.0
 27
1.0
 37
0.0
 76
     0
330
1B
  0
LAYOUT
  5
26
102
{ACAD_REACTORS
330
1A
102
}
330
1A
100
AcDbPlotSettings
  1

  2
none_device
  4

  6

 40
0.0
 41
0.0
 42
0.0
 43
0.0
 44
0.0
 45
0.0
 46
0.0
 47
0.0
 48
0.0
 49
0.0
140
0.0
141
0.0
142
1.0
143
1.0
 70
   688
 72
     0
 73
     0
 74
     5
  7

 75
    16
 76
     0
 77
     2
 78
   300
147
1.0
148
0.0
149
0.0
100
AcDbLayout
  1

 70
     1
 71
     2
 10
0.0
 20
0.0
 11
0.0
 21
0.0
 12
0.0
 22
0.0
 32
0.0
 14
0.0
 24
0.0
 34
0.0
 15
0.0
 25
0.0
 35
0.0
146
0.0
 13
0.0
 23
0.0
 33
0.0
 16
1.0
 26
0.0
 36
0.0
 17
0.0
 27
1.0
 37
0.0
 76
     0
330
23
  0
LAYOUT
  5
22
102
{ACAD_REACTORS
330
1A
102
}
330
1A
100
AcDbPlotSettings
  1

  2
none_device
  4
Letter_(8.50_x_11.00_Inches)
  6

 40
6.35
 41
6.35
 42
6.35000508
 43
6.35000508
 44
215.9
 45
279.4
 46
0.0
 47
0.0
 48
0.0
 49
0.0
140
0.0
141
0.0
142
1.0
143
1.0
 70
  1712
 72
     0
 73
     0
 74
     0
  7

 75
     0
 76
     0
 77
     2
 78
   300
147
1.0
148
0.0
149
0.0
100
AcDbLayout
  1
Model
 70
     1
 71
     0
 10
0.0
 20
0.0
 11
12.0
 21
9.0
 12
0.0
 22
0.0
 32
0.0
 14
1.000000000000000E+20
 24
1.000000000000000E+20
 34
1.000000000000000E+20
 15
-1.000000000000000E+20
 25
-1.000000000000000E+20
 35
-1.000000000000000E+20
146
0.0
 13
0.0
 23
0.0
 33
0.0
 16
1.0
 26
0.0
 36
0.0
 17
0.0
 27
1.0
 37
0.0
 76
     0
330
1F
331
29
  0
MATERIAL
  5
45
102
{ACAD_REACTORS
330
43
102
}
102
{ACAD_XDICTIONARY
360
174
102
}
330
43
100
AcDbMaterial
  1
ByBlock
  0
MATERIAL
  5
44
102
{ACAD_REACTORS
330
43
102
}
102
{ACAD_XDICTIONARY
360
172
102
}
330
43
100
AcDbMaterial
  1
ByLayer
  0
MATERIAL
  5
46
102
{ACAD_REACTORS
330
43
102
}
102
{ACAD_XDICTIONARY
360
176
102
}
330
43
100
AcDbMaterial
  1
Global
  0
MLEADERSTYLE
  5
6C
102
{ACAD_REACTORS
330
6B
102
}
102
{ACAD_XDICTIONARY
360
17C
102
}
330
6B
100
AcDbMLeaderStyle
170
     2
171
     1
172
     0
 90
        2
 40
0.0
 41
0.0
173
     1
 91
-1056964608
340
14
 92
       -2
290
     1
 42
0.09
291
     1
 43
0.36
  3
Standard
341
0
 44
0.18
300

342
11
174
     1
178
     6
175
     1
176
     0
 93
-1056964608
 45
0.18
292
     0
297
     0
 46
0.18
343
0
 94
-1056964608
 47
1.0
 49
1.0
140
1.0
293
     1
141
0.0
294
     1
177
     0
142
1.0
295
     0
296
     0
143
0.125
1001
ACAD_MLEADERVER
1070
     2
  0
MLINESTYLE
  5
18
102
{ACAD_REACTORS
330
17
102
}
330
17
100
AcDbMlineStyle
  2
Standard
 70
     0
  3

 62
   256
 51
90.0
 52
90.0
 71
     2
 49
0.5
 62
   256
  6
BYLAYER
 49
-0.5
 62
   256
  6
BYLAYER
  0
ACDBPLACEHOLDER
  5
F
102
{ACAD_REACTORS
330
E
102
}
330
E
  0
SCALE
  5
48
102
{ACAD_REACTORS
330
47
102
}
330
47
100
AcDbScale
 70
     0
300
1:1
140
1.0
141
1.0
290
     1
  0
SCALE
  5
49
102
{ACAD_REACTORS
330
47
102
}
330
47
100
AcDbScale
 70
     0
300
1:2
140
1.0
141
2.0
290
     0
  0
SCALE
  5
4A
102
{ACAD_REACTORS
330
47
102
}
330
47
100
AcDbScale
 70
     0
300
1:4
140
1.0
141
4.0
290
     0
  0
SCALE
  5
4B
102
{ACAD_REACTORS
330
47
102
}
330
47
100
AcDbScale
 70
     0
300
1:5
140
1.0
141
5.0
290
     0
  0
SCALE
  5
4C
102
{ACAD_REACTORS
330
47
102
}
330
47
100
AcDbScale
 70
     0
300
1:8
140
1.0
141
8.0
290
     0
  0
SCALE
  5
4D
102
{ACAD_REACTORS
330
47
102
}
330
47
100
AcDbScale
 70
     0
300
1:10
140
1.0
141
10.0
290
     0
  0
SCALE
  5
4E
102
{ACAD_REACTORS
330
47
102
}
330
47
100
AcDbScale
 70
     0
300
1:16
140
1.0
141
16.0
290
     0
  0
SCALE
  5
4F
102
{ACAD_REACTORS
330
47
102
}
330
47
100
AcDbScale
 70
     0
300
1:20
140
1.0
141
20.0
290
     0
  0
SCALE
  5
50
102
{ACAD_REACTORS
330
47
102
}
330
47
100
AcDbScale
 70
     0
300
1:30
140
1.0
141
30.0
290
     0
  0
SCALE
  5
51
102
{ACAD_REACTORS
330
47
102
}
330
47
100
AcDbScale
 70
     0
300
1:40
140
1.0
141
40.0
290
     0
  0
SCALE
  5
52
102
{ACAD_REACTORS
330
47
102
}
330
47
100
AcDbScale
 70
     0
300
1:50
140
1.0
141
50.0
290
     0
  0
SCALE
  5
53
102
{ACAD_REACTORS
330
47
102
}
330
47
100
AcDbScale
 70
     0
300
1:100
140
1.0
141
100.0
290
     0
  0
SCALE
  5
54
102
{ACAD_REACTORS
330
47
102
}
330
47
100
AcDbScale
 70
     0
300
2:1
140
2.0
141
1.0
290
     0
  0
SCALE
  5
55
102
{ACAD_REACTORS
330
47
102
}
330
47
100
AcDbScale
 70
     0
300
4:1
140
4.0
141
1.0
290
     0
  0
SCALE
  5
56
102
{ACAD_REACTORS
330
47
102
}
330
47
100
AcDbScale
 70
     0
300
8:1
140
8.0
141
1.0
290
     0
  0
SCALE
  5
57
102
{ACAD_REACTORS
330
47
102
}
330
47
100
AcDbScale
 70
     0
300
10:1
140
10.0
141
1.0
290
     0
  0
SCALE
  5
58
102
{ACAD_REACTORS
330
47
102
}
330
47
100
AcDbScale
 70
     0
300
100:1
140
100.0
141
1.0
290
     0
  0
SCALE
  5
59
102
{ACAD_REACTORS
330
47
102
}
330
47
100
AcDbScale
 70
     0
300
1/128" = 1'-0"
140
0.0078125
141
12.0
290
     0
  0
SCALE
  5
5A
102
{ACAD_REACTORS
330
47
102
}
330
47
100
AcDbScale
 70
     0
300
1/64" = 1'-0"
140
0.015625
141
12.0
290
     0
  0
SCALE
  5
5B
102
{ACAD_REACTORS
330
47
102
}
330
47
100
AcDbScale
 70
     0
300
1/32" = 1'-0"
140
0.03125
141
12.0
290
     0
  0
SCALE
  5
5C
102
{ACAD_REACTORS
330
47
102
}
330
47
100
AcDbScale
 70
     0
300
1/16" = 1'-0"
140
0.0625
141
12.0
290
     0
  0
SCALE
  5
5D
102
{ACAD_REACTORS
330
47
102
}
330
47
100
AcDbScale
 70
     0
300
3/32" = 1'-0"
140
0.09375
141
12.0
290
     0
  0
SCALE
  5
5E
102
{ACAD_REACTORS
330
47
102
}
330
47
100
AcDbScale
 70
     0
300
1/8" = 1'-0"
140
0.125
141
12.0
290
     0
  0
SCALE
  5
5F
102
{ACAD_REACTORS
330
47
102
}
330
47
100
AcDbScale
 70
     0
300
3/16" = 1'-0"
140
0.1875
141
12.0
290
     0
  0
SCALE
  5
60
102
{ACAD_REACTORS
330
47
102
}
330
47
100
AcDbScale
 70
     0
300
1/4" = 1'-0"
140
0.25
141
12.0
290
     0
  0
SCALE
  5
61
102
{ACAD_REACTORS
330
47
102
}
330
47
100
AcDbScale
 70
     0
300
3/8" = 1'-0"
140
0.375
141
12.0
290
     0
  0
SCALE
  5
62
102
{ACAD_REACTORS
330
47
102
}
330
47
100
AcDbScale
 70
     0
300
1/2" = 1'-0"
140
0.5
141
12.0
290
     0
  0
SCALE
  5
63
102
{ACAD_REACTORS
330
47
102
}
330
47
100
AcDbScale
 70
     0
300
3/4" = 1'-0"
140
0.75
141
12.0
290
     0
  0
SCALE
  5
64
102
{ACAD_REACTORS
330
47
102
}
330
47
100
AcDbScale
 70
     0
300
1" = 1'-0"
140
1.0
141
12.0
290
     0
  0
SCALE
  5
65
102
{ACAD_REACTORS
330
47
102
}
330
47
100
AcDbScale
 70
     0
300
1-1/2" = 1'-0"
140
1.5
141
12.0
290
     0
  0
SCALE
  5
66
102
{ACAD_REACTORS
330
47
102
}
330
47
100
AcDbScale
 70
     0
300
3" = 1'-0"
140
3.0
141
12.0
290
     0
  0
SCALE
  5
67
102
{ACAD_REACTORS
330
47
102
}
330
47
100
AcDbScale
 70
     0
300
6" = 1'-0"
140
6.0
141
12.0
290
     0
  0
SCALE
  5
68
102
{ACAD_REACTORS
330
47
102
}
330
47
100
AcDbScale
 70
     0
300
1'-0" = 1'-0"
140
12.0
141
12.0
290
     0
  0
TABLESTYLE
  5
6A
102
{ACAD_REACTORS
330
69
102
}
102
{ACAD_XDICTIONARY
360
178
102
}
330
69
100
AcDbTableStyle
  3
Standard
 70
     0
 71
     0
 40
0.06
 41
0.06
280
     0
281
     0
  7
Standard
140
0.18
170
     2
 62
     0
 63
   257
283
     0
274
    -2
284
     1
 64
     0
275
    -2
285
     1
 65
     0
276
    -2
286
     1
 66
     0
277
    -2
287
     1
 67
     0
278
    -2
288
     1
 68
     0
279
    -2
289
     1
 69
     0
  7
Standard
140
0.25
170
     5
 62
     0
 63
   257
283
     0
274
    -2
284
     1
 64
     0
275
    -2
285
     1
 65
     0
276
    -2
286
     1
 66
     0
277
    -2
287
     1
 67
     0
278
    -2
288
     1
 68
     0
279
    -2
289
     1
 69
     0
  7
Standard
140
0.18
170
     5
 62
     0
 63
   257
283
     0
274
    -2
284
     1
 64
     0
275
    -2
285
     1
 65
     0
276
    -2
286
     1
 66
     0
277
    -2
287
     1
 67
     0
278
    -2
288
     1
 68
     0
279
    -2
289
     1
 69
     0
  0
VISUALSTYLE
  5
2F
102
{ACAD_REACTORS
330
2A
102
}
102
{ACAD_XDICTIONARY
360
14A
102
}
330
2A
100
AcDbVisualStyle
  2
2dWireframe
 70
     4
 71
     0
 72
     2
 73
     0
 90
        0
 40
0.6
 41
30.0
 62
     5
 63
     7
421
 16777215
 74
     1
 91
        4
 64
     7
 65
   257
 75
     1
175
     1
 42
1.0
 92
        0
 66
   257
 43
1.0
 76
     1
 77
     6
 78
     2
 67
     7
 79
     5
170
     0
171
     0
290
     0
174
     0
 93
        1
 44
0.0
173
     0
291
     0
 45
0.0
1001
ACAD
1000
AcDbSavedByObjectVersion
1070
     0
  0
VISUALSTYLE
  5
32
102
{ACAD_REACTORS
330
2A
102
}
102
{ACAD_XDICTIONARY
360
150
102
}
330
2A
100
AcDbVisualStyle
  2
Basic
 70
     7
 71
     1
 72
     0
 73
     1
 90
        0
 40
0.6
 41
30.0
 62
     5
 63
     7
421
 16777215
 74
     0
 91
        4
 64
     7
 65
   257
 75
     1
175
     1
 42
1.0
 92
        8
 66
     7
 43
1.0
 76
     1
 77
     6
 78
     2
 67
     7
 79
     5
170
     0
171
     0
290
     0
174
     0
 93
        1
 44
0.0
173
     0
291
     1
 45
0.0
1001
ACAD
1000
AcDbSavedByObjectVersion
1070
     0
  0
VISUALSTYLE
  5
36
102
{ACAD_REACTORS
330
2A
102
}
102
{ACAD_XDICTIONARY
360
158
102
}
330
2A
100
AcDbVisualStyle
  2
Brighten
 70
    12
 71
     2
 72
     2
 73
     0
 90
        0
 40
0.6
 41
30.0
 62
     5
 63
     7
421
 16777215
 74
     1
 91
        4
 64
     7
 65
   257
 75
     1
175
     1
 42
1.0
 92
        8
 66
     7
 43
1.0
 76
     1
 77
     6
 78
     2
 67
     7
 79
     5
170
     0
171
     0
290
     0
174
     0
 93
        1
 44
50.0
173
     0
291
     1
 45
0.0
1001
ACAD
1000
AcDbSavedByObjectVersion
1070
     0
  0
VISUALSTYLE
  5
3A
102
{ACAD_REACTORS
330
2A
102
}
102
{ACAD_XDICTIONARY
360
160
102
}
330
2A
100
AcDbVisualStyle
  2
ColorChange
 70
    16
 71
     2
 72
     2
 73
     3
 90
        0
 40
0.6
 41
30.0
 62
     5
 63
     8
421
  8421504
 74
     1
 91
        4
 64
     7
 65
   257
 75
     1
175
     1
 42
1.0
 92
        8
 66
     8
424
  8421504
 43
1.0
 76
     1
 77
     6
 78
     2
 67
     7
 79
     5
170
     0
171
     0
290
     0
174
     0
 93
        1
 44
0.0
173
     0
291
     1
 45
0.0
1001
ACAD
1000
AcDbSavedByObjectVersion
1070
     0
  0
VISUALSTYLE
  5
34
102
{ACAD_REACTORS
330
2A
102
}
102
{ACAD_XDICTIONARY
360
154
102
}
330
2A
100
AcDbVisualStyle
  2
Conceptual
 70
     9
 71
     3
 72
     2
 73
     0
 90
        0
 40
0.6
 41
30.0
 62
     5
 63
     7
421
 16777215
 74
     2
 91
        2
 64
     7
 65
   257
 75
     1
175
     1
 42
179.0
 92
        8
 66
     7
 43
1.0
 76
     1
 77
     6
 78
     2
 67
     7
 79
     3
170
     0
171
     0
290
     0
174
     0
 93
        1
 44
0.0
173
     0
291
     0
 45
0.0
1001
ACAD
1000
AcDbSavedByObjectVersion
1070
     0
  0
VISUALSTYLE
  5
35
102
{ACAD_REACTORS
330
2A
102
}
102
{ACAD_XDICTIONARY
360
156
102
}
330
2A
100
AcDbVisualStyle
  2
Dim
 70
    11
 71
     2
 72
     2
 73
     0
 90
        0
 40
0.6
 41
30.0
 62
     5
 63
     7
421
 16777215
 74
     1
 91
        4
 64
     7
 65
   257
 75
     1
175
     1
 42
1.0
 92
        8
 66
     7
 43
1.0
 76
     1
 77
     6
 78
     2
 67
     7
 79
     5
170
     0
171
     0
290
     0
174
     0
 93
        1
 44
-50.0
173
     0
291
     1
 45
0.0
1001
ACAD
1000
AcDbSavedByObjectVersion
1070
     0
  0
VISUALSTYLE
  5
3D
102
{ACAD_REACTORS
330
2A
102
}
102
{ACAD_XDICTIONARY
360
166
102
}
330
2A
100
AcDbVisualStyle
  2
EdgeColorOff
 70
    22
 71
     2
 72
     2
 73
     0
 90
        0
 40
0.6
 41
30.0
 62
     5
 63
     7
421
 16777215
 74
     1
 91
        4
 64
     7
 65
   257
 75
     1
175
     1
 42
1.0
 92
        8
 66
     7
 43
1.0
 76
     1
 77
     6
 78
     2
 67
     7
 79
     5
170
     0
171
     0
290
     0
174
     0
 93
        1
 44
0.0
173
     0
291
     1
 45
0.0
1001
ACAD
1000
AcDbSavedByObjectVersion
1070
     0
  0
VISUALSTYLE
  5
39
102
{ACAD_REACTORS
330
2A
102
}
102
{ACAD_XDICTIONARY
360
15E
102
}
330
2A
100
AcDbVisualStyle
  2
Facepattern
 70
    15
 71
     2
 72
     2
 73
     0
 90
        0
 40
0.6
 41
30.0
 62
     5
 63
     7
421
 16777215
 74
     1
 91
        4
 64
     7
 65
   257
 75
     1
175
     1
 42
1.0
 92
        8
 66
     7
 43
1.0
 76
     1
 77
     6
 78
     2
 67
     7
 79
     5
170
     0
171
     0
290
     0
174
     0
 93
        1
 44
0.0
173
     0
291
     1
 45
0.0
1001
ACAD
1000
AcDbSavedByObjectVersion
1070
     0
  0
VISUALSTYLE
  5
2B
102
{ACAD_REACTORS
330
2A
102
}
102
{ACAD_XDICTIONARY
360
142
102
}
330
2A
100
AcDbVisualStyle
  2
Flat
 70
     0
 71
     2
 72
     1
 73
     1
 90
        2
 40
0.6
 41
30.0
 62
     5
 63
     7
421
 16777215
 74
     0
 91
        0
 64
     7
 65
   257
 75
     1
175
     1
 42
1.0
 92
        8
 66
     7
 43
1.0
 76
     1
 77
     6
 78
     2
 67
     7
 79
     5
170
     0
171
     0
290
     0
174
     0
 93
       13
 44
0.0
173
     0
291
     1
 45
0.0
1001
ACAD
1000
AcDbSavedByObjectVersion
1070
     0
  0
VISUALSTYLE
  5
2C
102
{ACAD_REACTORS
330
2A
102
}
102
{ACAD_XDICTIONARY
360
144
102
}
330
2A
100
AcDbVisualStyle
  2
FlatWithEdges
 70
     1
 71
     2
 72
     1
 73
     1
 90
        2
 40
0.6
 41
30.0
 62
     5
 63
     7
421
 16777215
 74
     1
 91
        0
 64
     7
 65
   257
 75
     1
175
     1
 42
1.0
 92
        0
 66
   257
 43
1.0
 76
     1
 77
     6
 78
     2
 67
     7
 79
     5
170
     0
171
     0
290
     0
174
     0
 93
       13
 44
0.0
173
     0
291
     1
 45
0.0
1001
ACAD
1000
AcDbSavedByObjectVersion
1070
     0
  0
VISUALSTYLE
  5
2D
102
{ACAD_REACTORS
330
2A
102
}
102
{ACAD_XDICTIONARY
360
146
102
}
330
2A
100
AcDbVisualStyle
  2
Gouraud
 70
     2
 71
     2
 72
     2
 73
     1
 90
        2
 40
0.6
 41
30.0
 62
     5
 63
     7
421
 16777215
 74
     0
 91
        0
 64
     7
 65
   257
 75
     1
175
     1
 42
1.0
 92
        0
 66
     7
 43
1.0
 76
     1
 77
     6
 78
     2
 67
     7
 79
     5
170
     0
171
     0
290
     0
174
     0
 93
       13
 44
0.0
173
     0
291
     1
 45
0.0
1001
ACAD
1000
AcDbSavedByObjectVersion
1070
     0
  0
VISUALSTYLE
  5
2E
102
{ACAD_REACTORS
330
2A
102
}
102
{ACAD_XDICTIONARY
360
148
102
}
330
2A
100
AcDbVisualStyle
  2
GouraudWithEdges
 70
     3
 71
     2
 72
     2
 73
     1
 90
        2
 40
0.6
 41
30.0
 62
     5
 63
     7
421
 16777215
 74
     1
 91
        0
 64
     7
 65
   257
 75
     1
175
     1
 42
1.0
 92
        0
 66
   257
 43
1.0
 76
     1
 77
     6
 78
     2
 67
     7
 79
     5
170
     0
171
     0
290
     0
174
     0
 93
       13
 44
0.0
173
     0
291
     1
 45
0.0
1001
ACAD
1000
AcDbSavedByObjectVersion
1070
     0
  0
VISUALSTYLE
  5
31
102
{ACAD_REACTORS
330
2A
102
}
102
{ACAD_XDICTIONARY
360
14E
102
}
330
2A
100
AcDbVisualStyle
  2
Hidden
 70
     6
 71
     1
 72
     2
 73
     2
 90
        0
 40
0.6
 41
30.0
 62
     5
 63
     7
421
 16777215
 74
     2
 91
        2
 64
     7
 65
   257
 75
     2
175
     1
 42
40.0
 92
        0
 66
   257
 43
1.0
 76
     1
 77
     6
 78
     2
 67
     7
 79
     3
170
     0
171
     0
290
     0
174
     0
 93
        1
 44
0.0
173
     0
291
     0
 45
0.0
1001
ACAD
1000
AcDbSavedByObjectVersion
1070
     0
  0
VISUALSTYLE
  5
3B
102
{ACAD_REACTORS
330
2A
102
}
102
{ACAD_XDICTIONARY
360
162
102
}
330
2A
100
AcDbVisualStyle
  2
JitterOff
 70
    20
 71
     2
 72
     2
 73
     0
 90
        0
 40
0.6
 41
30.0
 62
     5
 63
     7
421
 16777215
 74
     1
 91
        4
 64
     7
 65
   257
 75
     1
175
     1
 42
1.0
 92
       10
 66
     7
 43
1.0
 76
     1
 77
     6
 78
     2
 67
     7
 79
     5
170
     0
171
     0
290
     0
174
     0
 93
        1
 44
0.0
173
     0
291
     1
 45
0.0
1001
ACAD
1000
AcDbSavedByObjectVersion
1070
     0
  0
VISUALSTYLE
  5
38
102
{ACAD_REACTORS
330
2A
102
}
102
{ACAD_XDICTIONARY
360
15C
102
}
330
2A
100
AcDbVisualStyle
  2
Linepattern
 70
    14
 71
     2
 72
     2
 73
     0
 90
        0
 40
0.6
 41
30.0
 62
     5
 63
     7
421
 16777215
 74
     1
 91
        4
 64
     7
 65
   257
 75
     7
175
     7
 42
1.0
 92
        8
 66
     7
 43
1.0
 76
     1
 77
     6
 78
     2
 67
     7
 79
     5
170
     0
171
     0
290
     0
174
     0
 93
        1
 44
0.0
173
     0
291
     1
 45
0.0
1001
ACAD
1000
AcDbSavedByObjectVersion
1070
     0
  0
VISUALSTYLE
  5
3C
102
{ACAD_REACTORS
330
2A
102
}
102
{ACAD_XDICTIONARY
360
164
102
}
330
2A
100
AcDbVisualStyle
  2
OverhangOff
 70
    21
 71
     2
 72
     2
 73
     0
 90
        0
 40
0.6
 41
30.0
 62
     5
 63
     7
421
 16777215
 74
     1
 91
        4
 64
     7
 65
   257
 75
     1
175
     1
 42
1.0
 92
        9
 66
     7
 43
1.0
 76
     1
 77
     6
 78
     2
 67
     7
 79
     5
170
     0
171
     0
290
     0
174
     0
 93
        1
 44
0.0
173
     0
291
     1
 45
0.0
1001
ACAD
1000
AcDbSavedByObjectVersion
1070
     0
  0
VISUALSTYLE
  5
33
102
{ACAD_REACTORS
330
2A
102
}
102
{ACAD_XDICTIONARY
360
152
102
}
330
2A
100
AcDbVisualStyle
  2
Realistic
 70
     8
 71
     2
 72
     3
 73
     0
 90
        2
 40
0.6
 41
30.0
 62
     5
 63
     7
421
 16777215
 74
     0
 91
        0
 64
     7
 65
   257
 75
     1
175
     1
 42
1.0
 92
        8
 66
   257
 43
1.0
 76
     1
 77
     6
 78
     2
 67
     7
 79
     3
170
     0
171
     0
290
     0
174
     0
 93
       13
 44
0.0
173
     0
291
     0
 45
0.0
1001
ACAD
1000
AcDbSavedByObjectVersion
1070
     0
  0
VISUALSTYLE
  5
42
102
{ACAD_REACTORS
330
2A
102
}
102
{ACAD_XDICTIONARY
360
170
102
}
330
2A
100
AcDbVisualStyle
  2
Shaded
 70
    27
 71
     2
 72
     2
 73
     1
 90
        2
 40
0.6
 41
30.0
 62
     5
 63
     7
421
 16777215
 74
     0
 91
        4
 64
     7
 65
   257
 75
     1
175
     1
 42
1.0
 92
        8
 66
   257
 43
1.0
 76
     1
 77
     6
 78
     2
 67
     8
425
  7895160
 79
     3
170
     0
171
     0
290
     0
174
     0
 93
        5
 44
0.0
173
     0
291
     0
 45
0.0
1001
ACAD
1000
AcDbSavedByObjectVersion
1070
     0
  0
VISUALSTYLE
  5
41
102
{ACAD_REACTORS
330
2A
102
}
102
{ACAD_XDICTIONARY
360
16E
102
}
330
2A
100
AcDbVisualStyle
  2
Shaded with edges
 70
    26
 71
     2
 72
     2
 73
     1
 90
        2
 40
0.6
 41
30.0
 62
     5
 63
     7
421
 16777215
 74
     1
 91
       10
 64
     7
 65
   257
 75
     2
175
     1
 42
1.0
 92
        8
 66
   257
 43
1.0
 76
     1
 77
     6
 78
     2
 67
     7
 79
     3
170
     0
171
     0
290
     0
174
     0
 93
        5
 44
0.0
173
     0
291
     0
 45
0.0
1001
ACAD
1000
AcDbSavedByObjectVersion
1070
     0
  0
VISUALSTYLE
  5
3E
102
{ACAD_REACTORS
330
2A
102
}
102
{ACAD_XDICTIONARY
360
168
102
}
330
2A
100
AcDbVisualStyle
  2
Shades of Gray
 70
    23
 71
     2
 72
     2
 73
     3
 90
        0
 40
0.6
 41
30.0
 62
     5
 63
     7
421
 16777215
 74
     2
 91
        2
 64
     7
 65
     7
 75
     1
175
     1
 42
40.0
 92
        8
 66
     7
 43
1.0
 76
     1
 77
     6
 78
     2
 67
     7
 79
     3
170
     0
171
     0
290
     0
174
     0
 93
        1
 44
0.0
173
     0
291
     0
 45
0.0
1001
ACAD
1000
AcDbSavedByObjectVersion
1070
     0
  0
VISUALSTYLE
  5
3F
102
{ACAD_REACTORS
330
2A
102
}
102
{ACAD_XDICTIONARY
360
16A
102
}
330
2A
100
AcDbVisualStyle
  2
Sketchy
 70
    24
 71
     1
 72
     2
 73
     2
 90
        0
 40
0.6
 41
30.0
 62
     5
 63
     7
421
 16777215
 74
     2
 91
        2
 64
     7
 65
     7
 75
     1
175
     1
 42
40.0
 92
       11
 66
     7
 43
1.0
 76
     1
 77
     6
 78
     2
 67
     7
 79
     6
170
     0
171
     0
290
     0
174
     0
 93
        1
 44
0.0
173
     0
291
     0
 45
0.0
1001
ACAD
1000
AcDbSavedByObjectVersion
1070
     0
  0
VISUALSTYLE
  5
37
102
{ACAD_REACTORS
330
2A
102
}
102
{ACAD_XDICTIONARY
360
15A
102
}
330
2A
100
AcDbVisualStyle
  2
Thicken
 70
    13
 71
     2
 72
     2
 73
     0
 90
        0
 40
0.6
 41
30.0
 62
     5
 63
     7
421
 16777215
 74
     1
 91
        4
 64
     7
 65
   257
 75
     1
175
     1
 42
1.0
 92
       12
 66
     7
 43
1.0
 76
     1
 77
     6
 78
     2
 67
     7
 79
     5
170
     0
171
     0
290
     0
174
     0
 93
        1
 44
0.0
173
     0
291
     1
 45
0.0
1001
ACAD
1000
AcDbSavedByObjectVersion
1070
     0
  0
VISUALSTYLE
  5
30
102
{ACAD_REACTORS
330
2A
102
}
102
{ACAD_XDICTIONARY
360
14C
102
}
330
2A
100
AcDbVisualStyle
  2
Wireframe
 70
     5
 71
     0
 72
     2
 73
     0
 90
        0
 40
0.6
 41
30.0
 62
     5
 63
     7
421
 16777215
 74
     1
 91
        4
 64
     7
 65
   257
 75
     1
175
     1
 42
1.0
 92
        0
 66
   257
 43
1.0
 76
     1
 77
     6
 78
     2
 67
     7
 79
     3
170
     0
171
     0
290
     0
174
     0
 93
        1
 44
0.0
173
     0
291
     0
 45
0.0
1001
ACAD
1000
AcDbSavedByObjectVersion
1070
     0
  0
VISUALSTYLE
  5
40
102
{ACAD_REACTORS
330
2A
102
}
102
{ACAD_XDICTIONARY
360
16C
102
}
330
2A
100
AcDbVisualStyle
  2
X-Ray
 70
    25
 71
     2
 72
     2
 73
     1
 90
        1
 40
0.5
 41
30.0
 62
     5
 63
     7
421
 16777215
 74
     1
 91
        0
 64
     7
 65
   257
 75
     1
175
     1
 42
1.0
 92
        8
 66
     7
 43
1.0
 76
     1
 77
     6
 78
     2
 67
     7
 79
     3
170
     0
171
     0
290
     0
174
     0
 93
       13
 44
0.0
173
     0
291
     0
 45
0.0
1001
ACAD
1000
AcDbSavedByObjectVersion
1070
     0
  0
DICTIONARYVAR
  5
13F
102
{ACAD_REACTORS
330
13E
102
}
330
13E
100
DictionaryVariables
280
     0
  1
1:1
  0
DICTIONARYVAR
  5
180
102
{ACAD_REACTORS
330
13E
102
}
330
13E
100
DictionaryVariables
280
     0
  1
Standard
  0
DICTIONARYVAR
  5
17F
102
{ACAD_REACTORS
330
13E
102
}
330
13E
100
DictionaryVariables
280
     0
  1
Standard
  0
DICTIONARYVAR
  5
140
102
{ACAD_REACTORS
330
13E
102
}
330
13E
100
DictionaryVariables
280
     0
  1
1
  0
DICTIONARYVAR
  5
141
102
{ACAD_REACTORS
330
13E
102
}
330
13E
100
DictionaryVariables
280
     0
  1
2
  0
DICTIONARY
  5
174
330
45
100
AcDbDictionary
280
     1
281
     1
  3
ACAD_XREC_ROUNDTRIP
360
175
  0
DICTIONARY
  5
172
330
44
100
AcDbDictionary
280
     1
281
     1
  3
ACAD_XREC_ROUNDTRIP
360
173
  0
DICTIONARY
  5
176
330
46
100
AcDbDictionary
280
     1
281
     1
  3
ACAD_XREC_ROUNDTRIP
360
177
  0
DICTIONARY
  5
17C
330
6C
100
AcDbDictionary
280
     1
281
     1
  3
ACAD_XREC_ROUNDTRIP
360
17D
  0
DICTIONARY
  5
178
330
6A
100
AcDbDictionary
280
     1
281
     1
  3
ACAD_ROUNDTRIP_2008_TABLESTYLE_CELLSTYLEMAP
360
17A
  3
ACAD_XREC_ROUNDTRIP
360
179
  0
DICTIONARY
  5
14A
330
2F
100
AcDbDictionary
280
     1
281
     1
  3
ACAD_XREC_ROUNDTRIP
360
14B
  0
DICTIONARY
  5
150
330
32
100
AcDbDictionary
280
     1
281
     1
  3
ACAD_XREC_ROUNDTRIP
360
151
  0
DICTIONARY
  5
158
330
36
100
AcDbDictionary
280
     1
281
     1
  3
ACAD_XREC_ROUNDTRIP
360
159
  0
DICTIONARY
  5
160
330
3A
100
AcDbDictionary
280
     1
281
     1
  3
ACAD_XREC_ROUNDTRIP
360
161
  0
DICTIONARY
  5
154
330
34
100
AcDbDictionary
280
     1
281
     1
  3
ACAD_XREC_ROUNDTRIP
360
155
  0
DICTIONARY
  5
156
330
35
100
AcDbDictionary
280
     1
281
     1
  3
ACAD_XREC_ROUNDTRIP
360
157
  0
DICTIONARY
  5
166
330
3D
100
AcDbDictionary
280
     1
281
     1
  3
ACAD_XREC_ROUNDTRIP
360
167
  0
DICTIONARY
  5
15E
330
39
100
AcDbDictionary
280
     1
281
     1
  3
ACAD_XREC_ROUNDTRIP
360
15F
  0
DICTIONARY
  5
142
330
2B
100
AcDbDictionary
280
     1
281
     1
  3
ACAD_XREC_ROUNDTRIP
360
143
  0
DICTIONARY
  5
144
330
2C
100
AcDbDictionary
280
     1
281
     1
  3
ACAD_XREC_ROUNDTRIP
360
145
  0
DICTIONARY
  5
146
330
2D
100
AcDbDictionary
280
     1
281
     1
  3
ACAD_XREC_ROUNDTRIP
360
147
  0
DICTIONARY
  5
148
330
2E
100
AcDbDictionary
280
     1
281
     1
  3
ACAD_XREC_ROUNDTRIP
360
149
  0
DICTIONARY
  5
14E
330
31
100
AcDbDictionary
280
     1
281
     1
  3
ACAD_XREC_ROUNDTRIP
360
14F
  0
DICTIONARY
  5
162
330
3B
100
AcDbDictionary
280
     1
281
     1
  3
ACAD_XREC_ROUNDTRIP
360
163
  0
DICTIONARY
  5
15C
330
38
100
AcDbDictionary
280
     1
281
     1
  3
ACAD_XREC_ROUNDTRIP
360
15D
  0
DICTIONARY
  5
164
330
3C
100
AcDbDictionary
280
     1
281
     1
  3
ACAD_XREC_ROUNDTRIP
360
165
  0
DICTIONARY
  5
152
330
33
100
AcDbDictionary
280
     1
281
     1
  3
ACAD_XREC_ROUNDTRIP
360
153
  0
DICTIONARY
  5
170
330
42
100
AcDbDictionary
280
     1
281
     1
  3
ACAD_XREC_ROUNDTRIP
360
171
  0
DICTIONARY
  5
16E
330
41
100
AcDbDictionary
280
     1
281
     1
  3
ACAD_XREC_ROUNDTRIP
360
16F
  0
DICTIONARY
  5
168
330
3E
100
AcDbDictionary
280
     1
281
     1
  3
ACAD_XREC_ROUNDTRIP
360
169
  0
DICTIONARY
  5
16A
330
3F
100
AcDbDictionary
280
     1
281
     1
  3
ACAD_XREC_ROUNDTRIP
360
16B
  0
DICTIONARY
  5
15A
330
37
100
AcDbDictionary
280
     1
281
     1
  3
ACAD_XREC_ROUNDTRIP
360
15B
  0
DICTIONARY
  5
14C
330
30
100
AcDbDictionary
280
     1
281
     1
  3
ACAD_XREC_ROUNDTRIP
360
14D
  0
DICTIONARY
  5
16C
330
40
100
AcDbDictionary
280
     1
281
     1
  3
ACAD_XREC_ROUNDTRIP
360
16D
  0
XRECORD
  5
175
102
{ACAD_REACTORS
330
174
102
}
330
174
100
AcDbXrecord
280
     1
102
MATERIAL
148
0.0
149
0.0
149
0.0
 93
        0
 94
      127
282
     0
 72
     1
 77
     1
171
     1
175
     1
179
     1
273
     0
  0
XRECORD
  5
173
102
{ACAD_REACTORS
330
172
102
}
330
172
100
AcDbXrecord
280
     1
102
MATERIAL
148
0.0
149
0.0
149
0.0
 93
        0
 94
      127
282
     0
 72
     1
 77
     1
171
     1
175
     1
179
     1
273
     0
  0
XRECORD
  5
177
102
{ACAD_REACTORS
330
176
102
}
330
176
100
AcDbXrecord
280
     1
102
MATERIAL
148
0.0
149
0.0
149
0.0
 93
        0
 94
      127
282
     0
 72
     1
 77
     1
171
     1
175
     1
179
     1
273
     0
  0
XRECORD
  5
17D
102
{ACAD_REACTORS
330
17C
102
}
330
17C
100
AcDbXrecord
280
     1
102
ACAD_ROUNDTRIP_2010_MLEADER_STYLE
  0
CELLSTYLEMAP
  5
17A
102
{ACAD_REACTORS
330
178
102
}
330
178
100
AcDbCellStyleMap
 90
        3
300
CELLSTYLE
  1
TABLEFORMAT_BEGIN
 90
        5
170
     1
 91
        0
 92
    32768
 62
   257
 93
        1
300
CONTENTFORMAT
  1
CONTENTFORMAT_BEGIN
 90
        0
 91
        0
 92
        4
 93
        0
300

 40
0.0
140
1.0
 94
        5
 62
     0
340
11
144
0.25
309
CONTENTFORMAT_END
171
     1
301
MARGIN
  1
CELLMARGIN_BEGIN
 40
0.06
 40
0.06
 40
0.06
 40
0.06
 40
0.06
 40
0.06
309
CELLMARGIN_END
 94
        6
 95
        1
302
GRIDFORMAT
  1
GRIDFORMAT_BEGIN
 90
        0
 91
        1
 62
     0
 92
       -2
340
14
 93
        0
 40
0.045
309
GRIDFORMAT_END
 95
        2
302
GRIDFORMAT
  1
GRIDFORMAT_BEGIN
 90
        0
 91
        1
 62
     0
 92
       -2
340
14
 93
        0
 40
0.045
309
GRIDFORMAT_END
 95
        4
302
GRIDFORMAT
  1
GRIDFORMAT_BEGIN
 90
        0
 91
        1
 62
     0
 92
       -2
340
14
 93
        0
 40
0.045
309
GRIDFORMAT_END
 95
        8
302
GRIDFORMAT
  1
GRIDFORMAT_BEGIN
 90
        0
 91
        1
 62
     0
 92
       -2
340
14
 93
        0
 40
0.045
309
GRIDFORMAT_END
 95
       16
302
GRIDFORMAT
  1
GRIDFORMAT_BEGIN
 90
        0
 91
        1
 62
     0
 92
       -2
340
14
 93
        0
 40
0.045
309
GRIDFORMAT_END
 95
       32
302
GRIDFORMAT
  1
GRIDFORMAT_BEGIN
 90
        0
 91
        1
 62
     0
 92
       -2
340
14
 93
        0
 40
0.045
309
GRIDFORMAT_END
309
TABLEFORMAT_END
  1
CELLSTYLE_BEGIN
 90
        1
 91
        1
300
_TITLE
309
CELLSTYLE_END
300
CELLSTYLE
  1
TABLEFORMAT_BEGIN
 90
        5
170
     1
 91
        0
 92
        0
 62
   257
 93
        1
300
CONTENTFORMAT
  1
CONTENTFORMAT_BEGIN
 90
        0
 91
        0
 92
        4
 93
        0
300

 40
0.0
140
1.0
 94
        5
 62
     0
340
11
144
0.18
309
CONTENTFORMAT_END
171
     1
301
MARGIN
  1
CELLMARGIN_BEGIN
 40
0.06
 40
0.06
 40
0.06
 40
0.06
 40
0.06
 40
0.06
309
CELLMARGIN_END
 94
        6
 95
        1
302
GRIDFORMAT
  1
GRIDFORMAT_BEGIN
 90
        0
 91
        1
 62
     0
 92
       -2
340
14
 93
        0
 40
0.045
309
GRIDFORMAT_END
 95
        2
302
GRIDFORMAT
  1
GRIDFORMAT_BEGIN
 90
        0
 91
        1
 62
     0
 92
       -2
340
14
 93
        0
 40
0.045
309
GRIDFORMAT_END
 95
        4
302
GRIDFORMAT
  1
GRIDFORMAT_BEGIN
 90
        0
 91
        1
 62
     0
 92
       -2
340
14
 93
        0
 40
0.045
309
GRIDFORMAT_END
 95
        8
302
GRIDFORMAT
  1
GRIDFORMAT_BEGIN
 90
        0
 91
        1
 62
     0
 92
       -2
340
14
 93
        0
 40
0.045
309
GRIDFORMAT_END
 95
       16
302
GRIDFORMAT
  1
GRIDFORMAT_BEGIN
 90
        0
 91
        1
 62
     0
 92
       -2
340
14
 93
        0
 40
0.045
309
GRIDFORMAT_END
 95
       32
302
GRIDFORMAT
  1
GRIDFORMAT_BEGIN
 90
        0
 91
        1
 62
     0
 92
       -2
340
14
 93
        0
 40
0.045
309
GRIDFORMAT_END
309
TABLEFORMAT_END
  1
CELLSTYLE_BEGIN
 90
        2
 91
        1
300
_HEADER
309
CELLSTYLE_END
300
CELLSTYLE
  1
TABLEFORMAT_BEGIN
 90
        5
170
     1
 91
        0
 92
        0
 62
   257
 93
        1
300
CONTENTFORMAT
  1
CONTENTFORMAT_BEGIN
 90
        0
 91
        0
 92
        4
 93
        0
300

 40
0.0
140
1.0
 94
        2
 62
     0
340
11
144
0.18
309
CONTENTFORMAT_END
171
     1
301
MARGIN
  1
CELLMARGIN_BEGIN
 40
0.06
 40
0.06
 40
0.06
 40
0.06
 40
0.06
 40
0.06
309
CELLMARGIN_END
 94
        6
 95
        1
302
GRIDFORMAT
  1
GRIDFORMAT_BEGIN
 90
        0
 91
        1
 62
     0
 92
       -2
340
14
 93
        0
 40
0.045
309
GRIDFORMAT_END
 95
        2
302
GRIDFORMAT
  1
GRIDFORMAT_BEGIN
 90
        0
 91
        1
 62
     0
 92
       -2
340
14
 93
        0
 40
0.045
309
GRIDFORMAT_END
 95
        4
302
GRIDFORMAT
  1
GRIDFORMAT_BEGIN
 90
        0
 91
        1
 62
     0
 92
       -2
340
14
 93
        0
 40
0.045
309
GRIDFORMAT_END
 95
        8
302
GRIDFORMAT
  1
GRIDFORMAT_BEGIN
 90
        0
 91
        1
 62
     0
 92
       -2
340
14
 93
        0
 40
0.045
309
GRIDFORMAT_END
 95
       16
302
GRIDFORMAT
  1
GRIDFORMAT_BEGIN
 90
        0
 91
        1
 62
     0
 92
       -2
340
14
 93
        0
 40
0.045
309
GRIDFORMAT_END
 95
       32
302
GRIDFORMAT
  1
GRIDFORMAT_BEGIN
 90
        0
 91
        1
 62
     0
 92
       -2
340
14
 93
        0
 40
0.045
309
GRIDFORMAT_END
309
TABLEFORMAT_END
  1
CELLSTYLE_BEGIN
 90
        3
 91
        2
300
_DATA
309
CELLSTYLE_END
  0
XRECORD
  5
179
102
{ACAD_REACTORS
330
178
102
}
330
178
100
AcDbXrecord
280
     1
102
ACAD_ROUNDTRIP_PRE2007_TABLESTYLE
 90
        4
 91
        0
  1

 92
        4
 93
        0
  2

 94
        4
 95
        0
  3

  0
XRECORD
  5
14B
102
{ACAD_REACTORS
330
14A
102
}
330
14A
100
AcDbXrecord
280
     1
102
RTVSPropertyOp0
 70
     1
102
RTVSPropertyOp1
 70
     1
102
RTVSPropertyOp2
 70
     1
102
RTVSPropertyOp3
 70
     1
102
RTVSPropertyOp4
 70
     1
102
RTVSPropertyOp5
 70
     1
102
RTVSPropertyOp6
 70
     1
102
RTVSPropertyOp7
 70
     1
102
RTVSPropertyOp8
 70
     1
102
RTVSPropertyOp9
 70
     1
102
RTVSPropertyOp10
 70
     1
102
RTVSPropertyOp11
 70
     1
102
RTVSPropertyOp12
 70
     1
102
RTVSPropertyOp13
 70
     1
102
RTVSPropertyOp14
 70
     1
102
RTVSPropertyOp15
 70
     1
102
RTVSPropertyOp16
 70
     1
102
RTVSPropertyOp17
 70
     1
102
RTVSPropertyOp18
 70
     1
102
RTVSPropertyOp19
 70
     1
102
RTVSPropertyOp20
 70
     1
102
RTVSPropertyOp21
 70
     1
102
RTVSPropertyOp22
 70
     1
102
RTVSPropertyOp23
 70
     1
102
RTVSPropertyOp24
 70
     1
102
RTVSPropertyOp25
 70
     1
102
RTVSPropertyOp26
 70
     1
102
RTVSPropertyOp27
 70
     1
102
RTVSPropertyOp28
 70
     1
102
RTVSPropertyOp29
 70
     1
102
RTVSPropertyOp30
 70
     1
102
RTVSPropertyOp31
 70
     1
102
RTVSPropertyOp32
 70
     1
102
RTVSPropertyOp33
 70
     1
102
RTVSPropertyOp34
 70
     1
102
RTVSPropertyOp35
 70
     1
102
RTVSPropertyOp36
 70
     1
102
RTVSPropertyOp37
 70
     1
102
RTVSPropertyOp38
 70
     1
102
RTVSPropertyOp39
 70
     1
102
RTVSPropertyOp40
 70
     1
102
RTVSPropertyOp41
 70
     1
102
RTVSPropertyOp42
 70
     1
102
RTVSPropertyOp43
 70
     1
102
RTVSPropertyOp44
 70
     1
102
RTVSPropertyOp45
 70
     1
102
RTVSPropertyOp46
 70
     1
102
RTVSPropertyOp47
 70
     1
102
RTVSPropertyOp48
 70
     1
102
RTVSPropertyOp49
 70
     1
102
RTVSPropertyOp50
 70
     1
102
RTVSPropertyOp51
 70
     0
102
RTVSPropertyOp52
 70
     0
102
RTVSPropertyOp53
 70
     1
102
RTVSPropertyOp54
 70
     1
102
RTVSPropertyOp55
 70
     1
102
RTVSPropertyOp56
 70
     1
102
RTVSPropertyOp57
 70
     1
102
RTVSPost2010Prop28
280
     1
102
RTVSPost2010PropOp28
 70
     1
102
RTVSPost2010Prop29
280
     1
102
RTVSPost2010PropOp29
 70
     1
102
RTVSPost2010Prop30
280
     0
102
RTVSPost2010PropOp30
 70
     1
102
RTVSPost2010Prop31
280
     0
102
RTVSPost2010PropOp31
 70
     1
102
RTVSPost2010Prop32
280
     0
102
RTVSPost2010PropOp32
 70
     1
102
RTVSPost2010Prop33
280
     0
102
RTVSPost2010PropOp33
 70
     1
102
RTVSPost2010Prop34
280
     0
102
RTVSPost2010PropOp34
 70
     1
102
RTVSPost2010Prop35
280
     0
102
RTVSPost2010PropOp35
 70
     1
102
RTVSPost2010Prop36
280
     0
102
RTVSPost2010PropOp36
 70
     1
102
RTVSPost2010Prop37
 90
       50
102
RTVSPost2010PropOp37
 70
     1
102
RTVSPost2010Prop38
140
0.0
102
RTVSPost2010PropOp38
 70
     1
102
RTVSPost2010Prop39
140
1.0
102
RTVSPost2010PropOp39
 70
     1
102
RTVSPost2010Prop40
 90
        0
102
RTVSPost2010PropOp40
 70
     1
102
RTVSPost2010Prop41ColorIndex
 90
       18
102
RTVSPost2010Prop41ColorRGB
 90
        0
102
RTVSPost2010PropOp41
 70
     1
102
RTVSPost2010Prop42
 90
       50
102
RTVSPost2010PropOp42
 70
     1
102
RTVSPost2010Prop43
 90
        3
102
RTVSPost2010PropOp43
 70
     1
102
RTVSPost2010Prop44ColorIndex
 90
        5
102
RTVSPost2010Prop44ColorRGB
 90
      255
102
RTVSPost2010PropOp44
 70
     1
102
RTVSPost2010Prop45
280
     0
102
RTVSPost2010PropOp45
 70
     1
102
RTVSPost2010Prop46
 90
       50
102
RTVSPost2010PropOp46
 70
     1
102
RTVSPost2010Prop47
 90
       50
102
RTVSPost2010PropOp47
 70
     1
102
RTVSPost2010Prop48
 90
       50
102
RTVSPost2010PropOp48
 70
     1
102
RTVSPost2010Prop49
280
     0
102
RTVSPost2010PropOp49
 70
     1
102
RTVSPost2010Prop50
 90
       50
102
RTVSPost2010PropOp50
 70
     1
102
RTVSPost2010Prop51ColorIndex
 90
      256
102
RTVSPost2010Prop51ColorRGB
 90
-16777216
102
RTVSPost2010PropOp51
 70
     0
102
RTVSPost2010Prop52
140
1.0
102
RTVSPost2010PropOp52
 70
     0
102
RTVSPost2010Prop53
 90
        2
102
RTVSPost2010PropOp53
 70
     1
102
RTVSPost2010Prop54
  1
strokes_ogs.tif
102
RTVSPost2010PropOp54
 70
     1
102
RTVSPost2010Prop55
280
     0
102
RTVSPost2010PropOp55
 70
     1
102
RTVSPost2010Prop56
140
1.0
102
RTVSPost2010PropOp56
 70
     1
102
RTVSPost2010Prop57
140
1.0
102
RTVSPost2010PropOp57
 70
     1
  0
XRECORD
  5
151
102
{ACAD_REACTORS
330
150
102
}
330
150
100
AcDbXrecord
280
     1
102
RTVSPropertyOp0
 70
     1
102
RTVSPropertyOp1
 70
     1
102
RTVSPropertyOp2
 70
     1
102
RTVSPropertyOp3
 70
     1
102
RTVSPropertyOp4
 70
     1
102
RTVSPropertyOp5
 70
     1
102
RTVSPropertyOp6
 70
     1
102
RTVSPropertyOp7
 70
     1
102
RTVSPropertyOp8
 70
     1
102
RTVSPropertyOp9
 70
     1
102
RTVSPropertyOp10
 70
     1
102
RTVSPropertyOp11
 70
     1
102
RTVSPropertyOp12
 70
     1
102
RTVSPropertyOp13
 70
     1
102
RTVSPropertyOp14
 70
     1
102
RTVSPropertyOp15
 70
     1
102
RTVSPropertyOp16
 70
     1
102
RTVSPropertyOp17
 70
     1
102
RTVSPropertyOp18
 70
     1
102
RTVSPropertyOp19
 70
     1
102
RTVSPropertyOp20
 70
     1
102
RTVSPropertyOp21
 70
     1
102
RTVSPropertyOp22
 70
     1
102
RTVSPropertyOp23
 70
     1
102
RTVSPropertyOp24
 70
     1
102
RTVSPropertyOp25
 70
     1
102
RTVSPropertyOp26
 70
     1
102
RTVSPropertyOp27
 70
     1
102
RTVSPropertyOp28
 70
     1
102
RTVSPropertyOp29
 70
     1
102
RTVSPropertyOp30
 70
     1
102
RTVSPropertyOp31
 70
     1
102
RTVSPropertyOp32
 70
     1
102
RTVSPropertyOp33
 70
     1
102
RTVSPropertyOp34
 70
     1
102
RTVSPropertyOp35
 70
     1
102
RTVSPropertyOp36
 70
     1
102
RTVSPropertyOp37
 70
     1
102
RTVSPropertyOp38
 70
     1
102
RTVSPropertyOp39
 70
     1
102
RTVSPropertyOp40
 70
     1
102
RTVSPropertyOp41
 70
     1
102
RTVSPropertyOp42
 70
     1
102
RTVSPropertyOp43
 70
     1
102
RTVSPropertyOp44
 70
     1
102
RTVSPropertyOp45
 70
     1
102
RTVSPropertyOp46
 70
     1
102
RTVSPropertyOp47
 70
     1
102
RTVSPropertyOp48
 70
     1
102
RTVSPropertyOp49
 70
     1
102
RTVSPropertyOp50
 70
     1
102
RTVSPropertyOp51
 70
     0
102
RTVSPropertyOp52
 70
     0
102
RTVSPropertyOp53
 70
     1
102
RTVSPropertyOp54
 70
     1
102
RTVSPropertyOp55
 70
     1
102
RTVSPropertyOp56
 70
     1
102
RTVSPropertyOp57
 70
     1
102
RTVSPost2010Prop28
280
     0
102
RTVSPost2010PropOp28
 70
     1
102
RTVSPost2010Prop29
280
     1
102
RTVSPost2010PropOp29
 70
     1
102
RTVSPost2010Prop30
280
     1
102
RTVSPost2010PropOp30
 70
     1
102
RTVSPost2010Prop31
280
     0
102
RTVSPost2010PropOp31
 70
     1
102
RTVSPost2010Prop32
280
     0
102
RTVSPost2010PropOp32
 70
     1
102
RTVSPost2010Prop33
280
     0
102
RTVSPost2010PropOp33
 70
     1
102
RTVSPost2010Prop34
280
     0
102
RTVSPost2010PropOp34
 70
     1
102
RTVSPost2010Prop35
280
     0
102
RTVSPost2010PropOp35
 70
     1
102
RTVSPost2010Prop36
280
     0
102
RTVSPost2010PropOp36
 70
     1
102
RTVSPost2010Prop37
 90
       50
102
RTVSPost2010PropOp37
 70
     1
102
RTVSPost2010Prop38
140
0.0
102
RTVSPost2010PropOp38
 70
     1
102
RTVSPost2010Prop39
140
1.0
102
RTVSPost2010PropOp39
 70
     1
102
RTVSPost2010Prop40
 90
        0
102
RTVSPost2010PropOp40
 70
     1
102
RTVSPost2010Prop41ColorIndex
 90
       18
102
RTVSPost2010Prop41ColorRGB
 90
        0
102
RTVSPost2010PropOp41
 70
     1
102
RTVSPost2010Prop42
 90
       50
102
RTVSPost2010PropOp42
 70
     1
102
RTVSPost2010Prop43
 90
        3
102
RTVSPost2010PropOp43
 70
     1
102
RTVSPost2010Prop44ColorIndex
 90
        5
102
RTVSPost2010Prop44ColorRGB
 90
      255
102
RTVSPost2010PropOp44
 70
     1
102
RTVSPost2010Prop45
280
     0
102
RTVSPost2010PropOp45
 70
     1
102
RTVSPost2010Prop46
 90
       50
102
RTVSPost2010PropOp46
 70
     1
102
RTVSPost2010Prop47
 90
       50
102
RTVSPost2010PropOp47
 70
     1
102
RTVSPost2010Prop48
 90
       50
102
RTVSPost2010PropOp48
 70
     1
102
RTVSPost2010Prop49
280
     0
102
RTVSPost2010PropOp49
 70
     1
102
RTVSPost2010Prop50
 90
       50
102
RTVSPost2010PropOp50
 70
     1
102
RTVSPost2010Prop51ColorIndex
 90
      256
102
RTVSPost2010Prop51ColorRGB
 90
-16777216
102
RTVSPost2010PropOp51
 70
     0
102
RTVSPost2010Prop52
140
1.0
102
RTVSPost2010PropOp52
 70
     0
102
RTVSPost2010Prop53
 90
        2
102
RTVSPost2010PropOp53
 70
     1
102
RTVSPost2010Prop54
  1
strokes_ogs.tif
102
RTVSPost2010PropOp54
 70
     1
102
RTVSPost2010Prop55
280
     0
102
RTVSPost2010PropOp55
 70
     1
102
RTVSPost2010Prop56
140
1.0
102
RTVSPost2010PropOp56
 70
     1
102
RTVSPost2010Prop57
140
1.0
102
RTVSPost2010PropOp57
 70
     1
  0
XRECORD
  5
159
102
{ACAD_REACTORS
330
158
102
}
330
158
100
AcDbXrecord
280
     1
102
RTVSPropertyOp0
 70
     1
102
RTVSPropertyOp1
 70
     1
102
RTVSPropertyOp2
 70
     1
102
RTVSPropertyOp3
 70
     1
102
RTVSPropertyOp4
 70
     1
102
RTVSPropertyOp5
 70
     1
102
RTVSPropertyOp6
 70
     1
102
RTVSPropertyOp7
 70
     1
102
RTVSPropertyOp8
 70
     1
102
RTVSPropertyOp9
 70
     1
102
RTVSPropertyOp10
 70
     1
102
RTVSPropertyOp11
 70
     1
102
RTVSPropertyOp12
 70
     1
102
RTVSPropertyOp13
 70
     1
102
RTVSPropertyOp14
 70
     1
102
RTVSPropertyOp15
 70
     1
102
RTVSPropertyOp16
 70
     1
102
RTVSPropertyOp17
 70
     1
102
RTVSPropertyOp18
 70
     1
102
RTVSPropertyOp19
 70
     1
102
RTVSPropertyOp20
 70
     1
102
RTVSPropertyOp21
 70
     1
102
RTVSPropertyOp22
 70
     1
102
RTVSPropertyOp23
 70
     1
102
RTVSPropertyOp24
 70
     1
102
RTVSPropertyOp25
 70
     1
102
RTVSPropertyOp26
 70
     1
102
RTVSPropertyOp27
 70
     1
102
RTVSPropertyOp28
 70
     1
102
RTVSPropertyOp29
 70
     1
102
RTVSPropertyOp30
 70
     1
102
RTVSPropertyOp31
 70
     1
102
RTVSPropertyOp32
 70
     1
102
RTVSPropertyOp33
 70
     1
102
RTVSPropertyOp34
 70
     1
102
RTVSPropertyOp35
 70
     1
102
RTVSPropertyOp36
 70
     1
102
RTVSPropertyOp37
 70
     1
102
RTVSPropertyOp38
 70
     1
102
RTVSPropertyOp39
 70
     1
102
RTVSPropertyOp40
 70
     1
102
RTVSPropertyOp41
 70
     1
102
RTVSPropertyOp42
 70
     1
102
RTVSPropertyOp43
 70
     1
102
RTVSPropertyOp44
 70
     1
102
RTVSPropertyOp45
 70
     1
102
RTVSPropertyOp46
 70
     1
102
RTVSPropertyOp47
 70
     1
102
RTVSPropertyOp48
 70
     1
102
RTVSPropertyOp49
 70
     1
102
RTVSPropertyOp50
 70
     1
102
RTVSPropertyOp51
 70
     0
102
RTVSPropertyOp52
 70
     0
102
RTVSPropertyOp53
 70
     1
102
RTVSPropertyOp54
 70
     1
102
RTVSPropertyOp55
 70
     1
102
RTVSPropertyOp56
 70
     1
102
RTVSPropertyOp57
 70
     1
102
RTVSPost2010Prop28
280
     0
102
RTVSPost2010PropOp28
 70
     1
102
RTVSPost2010Prop29
280
     1
102
RTVSPost2010PropOp29
 70
     1
102
RTVSPost2010Prop30
280
     1
102
RTVSPost2010PropOp30
 70
     1
102
RTVSPost2010Prop31
280
     0
102
RTVSPost2010PropOp31
 70
     1
102
RTVSPost2010Prop32
280
     0
102
RTVSPost2010PropOp32
 70
     1
102
RTVSPost2010Prop33
280
     0
102
RTVSPost2010PropOp33
 70
     1
102
RTVSPost2010Prop34
280
     0
102
RTVSPost2010PropOp34
 70
     1
102
RTVSPost2010Prop35
280
     0
102
RTVSPost2010PropOp35
 70
     1
102
RTVSPost2010Prop36
280
     0
102
RTVSPost2010PropOp36
 70
     1
102
RTVSPost2010Prop37
 90
       50
102
RTVSPost2010PropOp37
 70
     1
102
RTVSPost2010Prop38
140
0.0
102
RTVSPost2010PropOp38
 70
     1
102
RTVSPost2010Prop39
140
1.0
102
RTVSPost2010PropOp39
 70
     1
102
RTVSPost2010Prop40
 90
        0
102
RTVSPost2010PropOp40
 70
     1
102
RTVSPost2010Prop41ColorIndex
 90
       18
102
RTVSPost2010Prop41ColorRGB
 90
        0
102
RTVSPost2010PropOp41
 70
     1
102
RTVSPost2010Prop42
 90
       50
102
RTVSPost2010PropOp42
 70
     1
102
RTVSPost2010Prop43
 90
        3
102
RTVSPost2010PropOp43
 70
     1
102
RTVSPost2010Prop44ColorIndex
 90
        5
102
RTVSPost2010Prop44ColorRGB
 90
      255
102
RTVSPost2010PropOp44
 70
     1
102
RTVSPost2010Prop45
280
     0
102
RTVSPost2010PropOp45
 70
     1
102
RTVSPost2010Prop46
 90
       50
102
RTVSPost2010PropOp46
 70
     1
102
RTVSPost2010Prop47
 90
       50
102
RTVSPost2010PropOp47
 70
     1
102
RTVSPost2010Prop48
 90
       50
102
RTVSPost2010PropOp48
 70
     1
102
RTVSPost2010Prop49
280
     0
102
RTVSPost2010PropOp49
 70
     1
102
RTVSPost2010Prop50
 90
       50
102
RTVSPost2010PropOp50
 70
     1
102
RTVSPost2010Prop51ColorIndex
 90
      256
102
RTVSPost2010Prop51ColorRGB
 90
-16777216
102
RTVSPost2010PropOp51
 70
     0
102
RTVSPost2010Prop52
140
1.0
102
RTVSPost2010PropOp52
 70
     0
102
RTVSPost2010Prop53
 90
        2
102
RTVSPost2010PropOp53
 70
     1
102
RTVSPost2010Prop54
  1
strokes_ogs.tif
102
RTVSPost2010PropOp54
 70
     1
102
RTVSPost2010Prop55
280
     0
102
RTVSPost2010PropOp55
 70
     1
102
RTVSPost2010Prop56
140
1.0
102
RTVSPost2010PropOp56
 70
     1
102
RTVSPost2010Prop57
140
1.0
102
RTVSPost2010PropOp57
 70
     1
  0
XRECORD
  5
161
102
{ACAD_REACTORS
330
160
102
}
330
160
100
AcDbXrecord
280
     1
102
RTVSPropertyOp0
 70
     1
102
RTVSPropertyOp1
 70
     1
102
RTVSPropertyOp2
 70
     1
102
RTVSPropertyOp3
 70
     1
102
RTVSPropertyOp4
 70
     1
102
RTVSPropertyOp5
 70
     1
102
RTVSPropertyOp6
 70
     1
102
RTVSPropertyOp7
 70
     1
102
RTVSPropertyOp8
 70
     1
102
RTVSPropertyOp9
 70
     1
102
RTVSPropertyOp10
 70
     1
102
RTVSPropertyOp11
 70
     1
102
RTVSPropertyOp12
 70
     1
102
RTVSPropertyOp13
 70
     1
102
RTVSPropertyOp14
 70
     1
102
RTVSPropertyOp15
 70
     1
102
RTVSPropertyOp16
 70
     1
102
RTVSPropertyOp17
 70
     1
102
RTVSPropertyOp18
 70
     1
102
RTVSPropertyOp19
 70
     1
102
RTVSPropertyOp20
 70
     1
102
RTVSPropertyOp21
 70
     1
102
RTVSPropertyOp22
 70
     1
102
RTVSPropertyOp23
 70
     1
102
RTVSPropertyOp24
 70
     1
102
RTVSPropertyOp25
 70
     1
102
RTVSPropertyOp26
 70
     1
102
RTVSPropertyOp27
 70
     1
102
RTVSPropertyOp28
 70
     1
102
RTVSPropertyOp29
 70
     1
102
RTVSPropertyOp30
 70
     1
102
RTVSPropertyOp31
 70
     1
102
RTVSPropertyOp32
 70
     1
102
RTVSPropertyOp33
 70
     1
102
RTVSPropertyOp34
 70
     1
102
RTVSPropertyOp35
 70
     1
102
RTVSPropertyOp36
 70
     1
102
RTVSPropertyOp37
 70
     1
102
RTVSPropertyOp38
 70
     1
102
RTVSPropertyOp39
 70
     1
102
RTVSPropertyOp40
 70
     1
102
RTVSPropertyOp41
 70
     1
102
RTVSPropertyOp42
 70
     1
102
RTVSPropertyOp43
 70
     1
102
RTVSPropertyOp44
 70
     1
102
RTVSPropertyOp45
 70
     1
102
RTVSPropertyOp46
 70
     1
102
RTVSPropertyOp47
 70
     1
102
RTVSPropertyOp48
 70
     1
102
RTVSPropertyOp49
 70
     1
102
RTVSPropertyOp50
 70
     1
102
RTVSPropertyOp51
 70
     0
102
RTVSPropertyOp52
 70
     0
102
RTVSPropertyOp53
 70
     1
102
RTVSPropertyOp54
 70
     1
102
RTVSPropertyOp55
 70
     1
102
RTVSPropertyOp56
 70
     1
102
RTVSPropertyOp57
 70
     1
102
RTVSPost2010Prop28
280
     0
102
RTVSPost2010PropOp28
 70
     1
102
RTVSPost2010Prop29
280
     1
102
RTVSPost2010PropOp29
 70
     1
102
RTVSPost2010Prop30
280
     1
102
RTVSPost2010PropOp30
 70
     1
102
RTVSPost2010Prop31
280
     0
102
RTVSPost2010PropOp31
 70
     1
102
RTVSPost2010Prop32
280
     0
102
RTVSPost2010PropOp32
 70
     1
102
RTVSPost2010Prop33
280
     0
102
RTVSPost2010PropOp33
 70
     1
102
RTVSPost2010Prop34
280
     0
102
RTVSPost2010PropOp34
 70
     1
102
RTVSPost2010Prop35
280
     0
102
RTVSPost2010PropOp35
 70
     1
102
RTVSPost2010Prop36
280
     0
102
RTVSPost2010PropOp36
 70
     1
102
RTVSPost2010Prop37
 90
       50
102
RTVSPost2010PropOp37
 70
     1
102
RTVSPost2010Prop38
140
0.0
102
RTVSPost2010PropOp38
 70
     1
102
RTVSPost2010Prop39
140
1.0
102
RTVSPost2010PropOp39
 70
     1
102
RTVSPost2010Prop40
 90
        0
102
RTVSPost2010PropOp40
 70
     1
102
RTVSPost2010Prop41ColorIndex
 90
       18
102
RTVSPost2010Prop41ColorRGB
 90
        0
102
RTVSPost2010PropOp41
 70
     1
102
RTVSPost2010Prop42
 90
       50
102
RTVSPost2010PropOp42
 70
     1
102
RTVSPost2010Prop43
 90
        3
102
RTVSPost2010PropOp43
 70
     1
102
RTVSPost2010Prop44ColorIndex
 90
        5
102
RTVSPost2010Prop44ColorRGB
 90
      255
102
RTVSPost2010PropOp44
 70
     1
102
RTVSPost2010Prop45
280
     0
102
RTVSPost2010PropOp45
 70
     1
102
RTVSPost2010Prop46
 90
       50
102
RTVSPost2010PropOp46
 70
     1
102
RTVSPost2010Prop47
 90
       50
102
RTVSPost2010PropOp47
 70
     1
102
RTVSPost2010Prop48
 90
       50
102
RTVSPost2010PropOp48
 70
     1
102
RTVSPost2010Prop49
280
     0
102
RTVSPost2010PropOp49
 70
     1
102
RTVSPost2010Prop50
 90
       50
102
RTVSPost2010PropOp50
 70
     1
102
RTVSPost2010Prop51ColorIndex
 90
      256
102
RTVSPost2010Prop51ColorRGB
 90
-16777216
102
RTVSPost2010PropOp51
 70
     0
102
RTVSPost2010Prop52
140
1.0
102
RTVSPost2010PropOp52
 70
     0
102
RTVSPost2010Prop53
 90
        2
102
RTVSPost2010PropOp53
 70
     1
102
RTVSPost2010Prop54
  1
strokes_ogs.tif
102
RTVSPost2010PropOp54
 70
     1
102
RTVSPost2010Prop55
280
     0
102
RTVSPost2010PropOp55
 70
     1
102
RTVSPost2010Prop56
140
1.0
102
RTVSPost2010PropOp56
 70
     1
102
RTVSPost2010Prop57
140
1.0
102
RTVSPost2010PropOp57
 70
     1
  0
XRECORD
  5
155
102
{ACAD_REACTORS
330
154
102
}
330
154
100
AcDbXrecord
280
     1
102
RTVSPropertyOp0
 70
     1
102
RTVSPropertyOp1
 70
     1
102
RTVSPropertyOp2
 70
     1
102
RTVSPropertyOp3
 70
     1
102
RTVSPropertyOp4
 70
     1
102
RTVSPropertyOp5
 70
     1
102
RTVSPropertyOp6
 70
     1
102
RTVSPropertyOp7
 70
     1
102
RTVSPropertyOp8
 70
     1
102
RTVSPropertyOp9
 70
     1
102
RTVSPropertyOp10
 70
     1
102
RTVSPropertyOp11
 70
     1
102
RTVSPropertyOp12
 70
     1
102
RTVSPropertyOp13
 70
     1
102
RTVSPropertyOp14
 70
     1
102
RTVSPropertyOp15
 70
     1
102
RTVSPropertyOp16
 70
     1
102
RTVSPropertyOp17
 70
     1
102
RTVSPropertyOp18
 70
     1
102
RTVSPropertyOp19
 70
     1
102
RTVSPropertyOp20
 70
     1
102
RTVSPropertyOp21
 70
     1
102
RTVSPropertyOp22
 70
     1
102
RTVSPropertyOp23
 70
     1
102
RTVSPropertyOp24
 70
     1
102
RTVSPropertyOp25
 70
     1
102
RTVSPropertyOp26
 70
     1
102
RTVSPropertyOp27
 70
     1
102
RTVSPropertyOp28
 70
     1
102
RTVSPropertyOp29
 70
     1
102
RTVSPropertyOp30
 70
     1
102
RTVSPropertyOp31
 70
     1
102
RTVSPropertyOp32
 70
     1
102
RTVSPropertyOp33
 70
     1
102
RTVSPropertyOp34
 70
     1
102
RTVSPropertyOp35
 70
     1
102
RTVSPropertyOp36
 70
     1
102
RTVSPropertyOp37
 70
     1
102
RTVSPropertyOp38
 70
     1
102
RTVSPropertyOp39
 70
     1
102
RTVSPropertyOp40
 70
     1
102
RTVSPropertyOp41
 70
     1
102
RTVSPropertyOp42
 70
     1
102
RTVSPropertyOp43
 70
     1
102
RTVSPropertyOp44
 70
     1
102
RTVSPropertyOp45
 70
     1
102
RTVSPropertyOp46
 70
     1
102
RTVSPropertyOp47
 70
     1
102
RTVSPropertyOp48
 70
     1
102
RTVSPropertyOp49
 70
     1
102
RTVSPropertyOp50
 70
     1
102
RTVSPropertyOp51
 70
     0
102
RTVSPropertyOp52
 70
     0
102
RTVSPropertyOp53
 70
     1
102
RTVSPropertyOp54
 70
     1
102
RTVSPropertyOp55
 70
     1
102
RTVSPropertyOp56
 70
     1
102
RTVSPropertyOp57
 70
     1
102
RTVSPost2010Prop28
280
     0
102
RTVSPost2010PropOp28
 70
     1
102
RTVSPost2010Prop29
280
     1
102
RTVSPost2010PropOp29
 70
     1
102
RTVSPost2010Prop30
280
     1
102
RTVSPost2010PropOp30
 70
     1
102
RTVSPost2010Prop31
280
     0
102
RTVSPost2010PropOp31
 70
     1
102
RTVSPost2010Prop32
280
     0
102
RTVSPost2010PropOp32
 70
     1
102
RTVSPost2010Prop33
280
     0
102
RTVSPost2010PropOp33
 70
     1
102
RTVSPost2010Prop34
280
     0
102
RTVSPost2010PropOp34
 70
     1
102
RTVSPost2010Prop35
280
     0
102
RTVSPost2010PropOp35
 70
     1
102
RTVSPost2010Prop36
280
     0
102
RTVSPost2010PropOp36
 70
     1
102
RTVSPost2010Prop37
 90
       50
102
RTVSPost2010PropOp37
 70
     1
102
RTVSPost2010Prop38
140
0.0
102
RTVSPost2010PropOp38
 70
     1
102
RTVSPost2010Prop39
140
1.0
102
RTVSPost2010PropOp39
 70
     1
102
RTVSPost2010Prop40
 90
        0
102
RTVSPost2010PropOp40
 70
     1
102
RTVSPost2010Prop41ColorIndex
 90
       18
102
RTVSPost2010Prop41ColorRGB
 90
        0
102
RTVSPost2010PropOp41
 70
     1
102
RTVSPost2010Prop42
 90
       50
102
RTVSPost2010PropOp42
 70
     1
102
RTVSPost2010Prop43
 90
        3
102
RTVSPost2010PropOp43
 70
     1
102
RTVSPost2010Prop44ColorIndex
 90
        5
102
RTVSPost2010Prop44ColorRGB
 90
      255
102
RTVSPost2010PropOp44
 70
     1
102
RTVSPost2010Prop45
280
     0
102
RTVSPost2010PropOp45
 70
     1
102
RTVSPost2010Prop46
 90
       50
102
RTVSPost2010PropOp46
 70
     1
102
RTVSPost2010Prop47
 90
       50
102
RTVSPost2010PropOp47
 70
     1
102
RTVSPost2010Prop48
 90
       50
102
RTVSPost2010PropOp48
 70
     1
102
RTVSPost2010Prop49
280
     0
102
RTVSPost2010PropOp49
 70
     1
102
RTVSPost2010Prop50
 90
       50
102
RTVSPost2010PropOp50
 70
     1
102
RTVSPost2010Prop51ColorIndex
 90
      256
102
RTVSPost2010Prop51ColorRGB
 90
-16777216
102
RTVSPost2010PropOp51
 70
     0
102
RTVSPost2010Prop52
140
1.0
102
RTVSPost2010PropOp52
 70
     0
102
RTVSPost2010Prop53
 90
        2
102
RTVSPost2010PropOp53
 70
     1
102
RTVSPost2010Prop54
  1
strokes_ogs.tif
102
RTVSPost2010PropOp54
 70
     1
102
RTVSPost2010Prop55
280
     0
102
RTVSPost2010PropOp55
 70
     1
102
RTVSPost2010Prop56
140
1.0
102
RTVSPost2010PropOp56
 70
     1
102
RTVSPost2010Prop57
140
1.0
102
RTVSPost2010PropOp57
 70
     1
  0
XRECORD
  5
157
102
{ACAD_REACTORS
330
156
102
}
330
156
100
AcDbXrecord
280
     1
102
RTVSPropertyOp0
 70
     1
102
RTVSPropertyOp1
 70
     1
102
RTVSPropertyOp2
 70
     1
102
RTVSPropertyOp3
 70
     1
102
RTVSPropertyOp4
 70
     1
102
RTVSPropertyOp5
 70
     1
102
RTVSPropertyOp6
 70
     1
102
RTVSPropertyOp7
 70
     1
102
RTVSPropertyOp8
 70
     1
102
RTVSPropertyOp9
 70
     1
102
RTVSPropertyOp10
 70
     1
102
RTVSPropertyOp11
 70
     1
102
RTVSPropertyOp12
 70
     1
102
RTVSPropertyOp13
 70
     1
102
RTVSPropertyOp14
 70
     1
102
RTVSPropertyOp15
 70
     1
102
RTVSPropertyOp16
 70
     1
102
RTVSPropertyOp17
 70
     1
102
RTVSPropertyOp18
 70
     1
102
RTVSPropertyOp19
 70
     1
102
RTVSPropertyOp20
 70
     1
102
RTVSPropertyOp21
 70
     1
102
RTVSPropertyOp22
 70
     1
102
RTVSPropertyOp23
 70
     1
102
RTVSPropertyOp24
 70
     1
102
RTVSPropertyOp25
 70
     1
102
RTVSPropertyOp26
 70
     1
102
RTVSPropertyOp27
 70
     1
102
RTVSPropertyOp28
 70
     1
102
RTVSPropertyOp29
 70
     1
102
RTVSPropertyOp30
 70
     1
102
RTVSPropertyOp31
 70
     1
102
RTVSPropertyOp32
 70
     1
102
RTVSPropertyOp33
 70
     1
102
RTVSPropertyOp34
 70
     1
102
RTVSPropertyOp35
 70
     1
102
RTVSPropertyOp36
 70
     1
102
RTVSPropertyOp37
 70
     1
102
RTVSPropertyOp38
 70
     1
102
RTVSPropertyOp39
 70
     1
102
RTVSPropertyOp40
 70
     1
102
RTVSPropertyOp41
 70
     1
102
RTVSPropertyOp42
 70
     1
102
RTVSPropertyOp43
 70
     1
102
RTVSPropertyOp44
 70
     1
102
RTVSPropertyOp45
 70
     1
102
RTVSPropertyOp46
 70
     1
102
RTVSPropertyOp47
 70
     1
102
RTVSPropertyOp48
 70
     1
102
RTVSPropertyOp49
 70
     1
102
RTVSPropertyOp50
 70
     1
102
RTVSPropertyOp51
 70
     0
102
RTVSPropertyOp52
 70
     0
102
RTVSPropertyOp53
 70
     1
102
RTVSPropertyOp54
 70
     1
102
RTVSPropertyOp55
 70
     1
102
RTVSPropertyOp56
 70
     1
102
RTVSPropertyOp57
 70
     1
102
RTVSPost2010Prop28
280
     0
102
RTVSPost2010PropOp28
 70
     1
102
RTVSPost2010Prop29
280
     1
102
RTVSPost2010PropOp29
 70
     1
102
RTVSPost2010Prop30
280
     1
102
RTVSPost2010PropOp30
 70
     1
102
RTVSPost2010Prop31
280
     0
102
RTVSPost2010PropOp31
 70
     1
102
RTVSPost2010Prop32
280
     0
102
RTVSPost2010PropOp32
 70
     1
102
RTVSPost2010Prop33
280
     0
102
RTVSPost2010PropOp33
 70
     1
102
RTVSPost2010Prop34
280
     0
102
RTVSPost2010PropOp34
 70
     1
102
RTVSPost2010Prop35
280
     0
102
RTVSPost2010PropOp35
 70
     1
102
RTVSPost2010Prop36
280
     0
102
RTVSPost2010PropOp36
 70
     1
102
RTVSPost2010Prop37
 90
       50
102
RTVSPost2010PropOp37
 70
     1
102
RTVSPost2010Prop38
140
0.0
102
RTVSPost2010PropOp38
 70
     1
102
RTVSPost2010Prop39
140
1.0
102
RTVSPost2010PropOp39
 70
     1
102
RTVSPost2010Prop40
 90
        0
102
RTVSPost2010PropOp40
 70
     1
102
RTVSPost2010Prop41ColorIndex
 90
       18
102
RTVSPost2010Prop41ColorRGB
 90
        0
102
RTVSPost2010PropOp41
 70
     1
102
RTVSPost2010Prop42
 90
       50
102
RTVSPost2010PropOp42
 70
     1
102
RTVSPost2010Prop43
 90
        3
102
RTVSPost2010PropOp43
 70
     1
102
RTVSPost2010Prop44ColorIndex
 90
        5
102
RTVSPost2010Prop44ColorRGB
 90
      255
102
RTVSPost2010PropOp44
 70
     1
102
RTVSPost2010Prop45
280
     0
102
RTVSPost2010PropOp45
 70
     1
102
RTVSPost2010Prop46
 90
       50
102
RTVSPost2010PropOp46
 70
     1
102
RTVSPost2010Prop47
 90
       50
102
RTVSPost2010PropOp47
 70
     1
102
RTVSPost2010Prop48
 90
       50
102
RTVSPost2010PropOp48
 70
     1
102
RTVSPost2010Prop49
280
     0
102
RTVSPost2010PropOp49
 70
     1
102
RTVSPost2010Prop50
 90
       50
102
RTVSPost2010PropOp50
 70
     1
102
RTVSPost2010Prop51ColorIndex
 90
      256
102
RTVSPost2010Prop51ColorRGB
 90
-16777216
102
RTVSPost2010PropOp51
 70
     0
102
RTVSPost2010Prop52
140
1.0
102
RTVSPost2010PropOp52
 70
     0
102
RTVSPost2010Prop53
 90
        2
102
RTVSPost2010PropOp53
 70
     1
102
RTVSPost2010Prop54
  1
strokes_ogs.tif
102
RTVSPost2010PropOp54
 70
     1
102
RTVSPost2010Prop55
280
     0
102
RTVSPost2010PropOp55
 70
     1
102
RTVSPost2010Prop56
140
1.0
102
RTVSPost2010PropOp56
 70
     1
102
RTVSPost2010Prop57
140
1.0
102
RTVSPost2010PropOp57
 70
     1
  0
XRECORD
  5
167
102
{ACAD_REACTORS
330
166
102
}
330
166
100
AcDbXrecord
280
     1
102
RTVSPropertyOp0
 70
     0
102
RTVSPropertyOp1
 70
     0
102
RTVSPropertyOp2
 70
     0
102
RTVSPropertyOp3
 70
     0
102
RTVSPropertyOp4
 70
     0
102
RTVSPropertyOp5
 70
     0
102
RTVSPropertyOp6
 70
     0
102
RTVSPropertyOp7
 70
     0
102
RTVSPropertyOp8
 70
     0
102
RTVSPropertyOp9
 70
     0
102
RTVSPropertyOp10
 70
     0
102
RTVSPropertyOp11
 70
     0
102
RTVSPropertyOp12
 70
     0
102
RTVSPropertyOp13
 70
     0
102
RTVSPropertyOp14
 70
     2
102
RTVSPropertyOp15
 70
     0
102
RTVSPropertyOp16
 70
     0
102
RTVSPropertyOp17
 70
     0
102
RTVSPropertyOp18
 70
     0
102
RTVSPropertyOp19
 70
     0
102
RTVSPropertyOp20
 70
     0
102
RTVSPropertyOp21
 70
     0
102
RTVSPropertyOp22
 70
     0
102
RTVSPropertyOp23
 70
     0
102
RTVSPropertyOp24
 70
     0
102
RTVSPropertyOp25
 70
     0
102
RTVSPropertyOp26
 70
     0
102
RTVSPropertyOp27
 70
     0
102
RTVSPropertyOp28
 70
     0
102
RTVSPropertyOp29
 70
     0
102
RTVSPropertyOp30
 70
     0
102
RTVSPropertyOp31
 70
     0
102
RTVSPropertyOp32
 70
     0
102
RTVSPropertyOp33
 70
     0
102
RTVSPropertyOp34
 70
     0
102
RTVSPropertyOp35
 70
     0
102
RTVSPropertyOp36
 70
     0
102
RTVSPropertyOp37
 70
     0
102
RTVSPropertyOp38
 70
     0
102
RTVSPropertyOp39
 70
     0
102
RTVSPropertyOp40
 70
     0
102
RTVSPropertyOp41
 70
     0
102
RTVSPropertyOp42
 70
     0
102
RTVSPropertyOp43
 70
     0
102
RTVSPropertyOp44
 70
     0
102
RTVSPropertyOp45
 70
     0
102
RTVSPropertyOp46
 70
     0
102
RTVSPropertyOp47
 70
     0
102
RTVSPropertyOp48
 70
     0
102
RTVSPropertyOp49
 70
     0
102
RTVSPropertyOp50
 70
     0
102
RTVSPropertyOp51
 70
     0
102
RTVSPropertyOp52
 70
     0
102
RTVSPropertyOp53
 70
     0
102
RTVSPropertyOp54
 70
     0
102
RTVSPropertyOp55
 70
     0
102
RTVSPropertyOp56
 70
     0
102
RTVSPropertyOp57
 70
     0
102
RTVSPost2010Prop28
280
     0
102
RTVSPost2010PropOp28
 70
     0
102
RTVSPost2010Prop29
280
     1
102
RTVSPost2010PropOp29
 70
     0
102
RTVSPost2010Prop30
280
     1
102
RTVSPost2010PropOp30
 70
     0
102
RTVSPost2010Prop31
280
     0
102
RTVSPost2010PropOp31
 70
     0
102
RTVSPost2010Prop32
280
     0
102
RTVSPost2010PropOp32
 70
     0
102
RTVSPost2010Prop33
280
     0
102
RTVSPost2010PropOp33
 70
     0
102
RTVSPost2010Prop34
280
     0
102
RTVSPost2010PropOp34
 70
     0
102
RTVSPost2010Prop35
280
     0
102
RTVSPost2010PropOp35
 70
     0
102
RTVSPost2010Prop36
280
     0
102
RTVSPost2010PropOp36
 70
     0
102
RTVSPost2010Prop37
 90
       50
102
RTVSPost2010PropOp37
 70
     0
102
RTVSPost2010Prop38
140
0.0
102
RTVSPost2010PropOp38
 70
     0
102
RTVSPost2010Prop39
140
1.0
102
RTVSPost2010PropOp39
 70
     0
102
RTVSPost2010Prop40
 90
        0
102
RTVSPost2010PropOp40
 70
     0
102
RTVSPost2010Prop41ColorIndex
 90
       18
102
RTVSPost2010Prop41ColorRGB
 90
        0
102
RTVSPost2010PropOp41
 70
     0
102
RTVSPost2010Prop42
 90
       50
102
RTVSPost2010PropOp42
 70
     0
102
RTVSPost2010Prop43
 90
        3
102
RTVSPost2010PropOp43
 70
     0
102
RTVSPost2010Prop44ColorIndex
 90
        5
102
RTVSPost2010Prop44ColorRGB
 90
      255
102
RTVSPost2010PropOp44
 70
     0
102
RTVSPost2010Prop45
280
     0
102
RTVSPost2010PropOp45
 70
     0
102
RTVSPost2010Prop46
 90
       50
102
RTVSPost2010PropOp46
 70
     0
102
RTVSPost2010Prop47
 90
       50
102
RTVSPost2010PropOp47
 70
     0
102
RTVSPost2010Prop48
 90
       50
102
RTVSPost2010PropOp48
 70
     0
102
RTVSPost2010Prop49
280
     0
102
RTVSPost2010PropOp49
 70
     0
102
RTVSPost2010Prop50
 90
       50
102
RTVSPost2010PropOp50
 70
     0
102
RTVSPost2010Prop51ColorIndex
 90
      256
102
RTVSPost2010Prop51ColorRGB
 90
-16777216
102
RTVSPost2010PropOp51
 70
     0
102
RTVSPost2010Prop52
140
1.0
102
RTVSPost2010PropOp52
 70
     0
102
RTVSPost2010Prop53
 90
        2
102
RTVSPost2010PropOp53
 70
     0
102
RTVSPost2010Prop54
  1
strokes_ogs.tif
102
RTVSPost2010PropOp54
 70
     0
102
RTVSPost2010Prop55
280
     0
102
RTVSPost2010PropOp55
 70
     0
102
RTVSPost2010Prop56
140
1.0
102
RTVSPost2010PropOp56
 70
     0
102
RTVSPost2010Prop57
140
1.0
102
RTVSPost2010PropOp57
 70
     0
  0
XRECORD
  5
15F
102
{ACAD_REACTORS
330
15E
102
}
330
15E
100
AcDbXrecord
280
     1
102
RTVSPropertyOp0
 70
     1
102
RTVSPropertyOp1
 70
     1
102
RTVSPropertyOp2
 70
     1
102
RTVSPropertyOp3
 70
     1
102
RTVSPropertyOp4
 70
     1
102
RTVSPropertyOp5
 70
     1
102
RTVSPropertyOp6
 70
     1
102
RTVSPropertyOp7
 70
     1
102
RTVSPropertyOp8
 70
     1
102
RTVSPropertyOp9
 70
     1
102
RTVSPropertyOp10
 70
     1
102
RTVSPropertyOp11
 70
     1
102
RTVSPropertyOp12
 70
     1
102
RTVSPropertyOp13
 70
     1
102
RTVSPropertyOp14
 70
     1
102
RTVSPropertyOp15
 70
     1
102
RTVSPropertyOp16
 70
     1
102
RTVSPropertyOp17
 70
     1
102
RTVSPropertyOp18
 70
     1
102
RTVSPropertyOp19
 70
     1
102
RTVSPropertyOp20
 70
     1
102
RTVSPropertyOp21
 70
     1
102
RTVSPropertyOp22
 70
     1
102
RTVSPropertyOp23
 70
     1
102
RTVSPropertyOp24
 70
     1
102
RTVSPropertyOp25
 70
     1
102
RTVSPropertyOp26
 70
     1
102
RTVSPropertyOp27
 70
     1
102
RTVSPropertyOp28
 70
     1
102
RTVSPropertyOp29
 70
     1
102
RTVSPropertyOp30
 70
     1
102
RTVSPropertyOp31
 70
     1
102
RTVSPropertyOp32
 70
     1
102
RTVSPropertyOp33
 70
     1
102
RTVSPropertyOp34
 70
     1
102
RTVSPropertyOp35
 70
     1
102
RTVSPropertyOp36
 70
     1
102
RTVSPropertyOp37
 70
     1
102
RTVSPropertyOp38
 70
     1
102
RTVSPropertyOp39
 70
     1
102
RTVSPropertyOp40
 70
     1
102
RTVSPropertyOp41
 70
     1
102
RTVSPropertyOp42
 70
     1
102
RTVSPropertyOp43
 70
     1
102
RTVSPropertyOp44
 70
     1
102
RTVSPropertyOp45
 70
     1
102
RTVSPropertyOp46
 70
     1
102
RTVSPropertyOp47
 70
     1
102
RTVSPropertyOp48
 70
     1
102
RTVSPropertyOp49
 70
     1
102
RTVSPropertyOp50
 70
     1
102
RTVSPropertyOp51
 70
     0
102
RTVSPropertyOp52
 70
     0
102
RTVSPropertyOp53
 70
     1
102
RTVSPropertyOp54
 70
     1
102
RTVSPropertyOp55
 70
     1
102
RTVSPropertyOp56
 70
     1
102
RTVSPropertyOp57
 70
     1
102
RTVSPost2010Prop28
280
     0
102
RTVSPost2010PropOp28
 70
     1
102
RTVSPost2010Prop29
280
     1
102
RTVSPost2010PropOp29
 70
     1
102
RTVSPost2010Prop30
280
     1
102
RTVSPost2010PropOp30
 70
     1
102
RTVSPost2010Prop31
280
     0
102
RTVSPost2010PropOp31
 70
     1
102
RTVSPost2010Prop32
280
     0
102
RTVSPost2010PropOp32
 70
     1
102
RTVSPost2010Prop33
280
     0
102
RTVSPost2010PropOp33
 70
     1
102
RTVSPost2010Prop34
280
     0
102
RTVSPost2010PropOp34
 70
     1
102
RTVSPost2010Prop35
280
     0
102
RTVSPost2010PropOp35
 70
     1
102
RTVSPost2010Prop36
280
     0
102
RTVSPost2010PropOp36
 70
     1
102
RTVSPost2010Prop37
 90
       50
102
RTVSPost2010PropOp37
 70
     1
102
RTVSPost2010Prop38
140
0.0
102
RTVSPost2010PropOp38
 70
     1
102
RTVSPost2010Prop39
140
1.0
102
RTVSPost2010PropOp39
 70
     1
102
RTVSPost2010Prop40
 90
        0
102
RTVSPost2010PropOp40
 70
     1
102
RTVSPost2010Prop41ColorIndex
 90
       18
102
RTVSPost2010Prop41ColorRGB
 90
        0
102
RTVSPost2010PropOp41
 70
     1
102
RTVSPost2010Prop42
 90
       50
102
RTVSPost2010PropOp42
 70
     1
102
RTVSPost2010Prop43
 90
        3
102
RTVSPost2010PropOp43
 70
     1
102
RTVSPost2010Prop44ColorIndex
 90
        5
102
RTVSPost2010Prop44ColorRGB
 90
      255
102
RTVSPost2010PropOp44
 70
     1
102
RTVSPost2010Prop45
280
     0
102
RTVSPost2010PropOp45
 70
     1
102
RTVSPost2010Prop46
 90
       50
102
RTVSPost2010PropOp46
 70
     1
102
RTVSPost2010Prop47
 90
       50
102
RTVSPost2010PropOp47
 70
     1
102
RTVSPost2010Prop48
 90
       50
102
RTVSPost2010PropOp48
 70
     1
102
RTVSPost2010Prop49
280
     0
102
RTVSPost2010PropOp49
 70
     1
102
RTVSPost2010Prop50
 90
       50
102
RTVSPost2010PropOp50
 70
     1
102
RTVSPost2010Prop51ColorIndex
 90
      256
102
RTVSPost2010Prop51ColorRGB
 90
-16777216
102
RTVSPost2010PropOp51
 70
     0
102
RTVSPost2010Prop52
140
1.0
102
RTVSPost2010PropOp52
 70
     0
102
RTVSPost2010Prop53
 90
        2
102
RTVSPost2010PropOp53
 70
     1
102
RTVSPost2010Prop54
  1
strokes_ogs.tif
102
RTVSPost2010PropOp54
 70
     1
102
RTVSPost2010Prop55
280
     0
102
RTVSPost2010PropOp55
 70
     1
102
RTVSPost2010Prop56
140
1.0
102
RTVSPost2010PropOp56
 70
     1
102
RTVSPost2010Prop57
140
1.0
102
RTVSPost2010PropOp57
 70
     1
  0
XRECORD
  5
143
102
{ACAD_REACTORS
330
142
102
}
330
142
100
AcDbXrecord
280
     1
102
RTVSPropertyOp0
 70
     1
102
RTVSPropertyOp1
 70
     1
102
RTVSPropertyOp2
 70
     1
102
RTVSPropertyOp3
 70
     1
102
RTVSPropertyOp4
 70
     1
102
RTVSPropertyOp5
 70
     1
102
RTVSPropertyOp6
 70
     1
102
RTVSPropertyOp7
 70
     1
102
RTVSPropertyOp8
 70
     1
102
RTVSPropertyOp9
 70
     1
102
RTVSPropertyOp10
 70
     1
102
RTVSPropertyOp11
 70
     1
102
RTVSPropertyOp12
 70
     1
102
RTVSPropertyOp13
 70
     1
102
RTVSPropertyOp14
 70
     1
102
RTVSPropertyOp15
 70
     1
102
RTVSPropertyOp16
 70
     1
102
RTVSPropertyOp17
 70
     1
102
RTVSPropertyOp18
 70
     1
102
RTVSPropertyOp19
 70
     1
102
RTVSPropertyOp20
 70
     1
102
RTVSPropertyOp21
 70
     1
102
RTVSPropertyOp22
 70
     1
102
RTVSPropertyOp23
 70
     1
102
RTVSPropertyOp24
 70
     1
102
RTVSPropertyOp25
 70
     1
102
RTVSPropertyOp26
 70
     1
102
RTVSPropertyOp27
 70
     1
102
RTVSPropertyOp28
 70
     1
102
RTVSPropertyOp29
 70
     1
102
RTVSPropertyOp30
 70
     1
102
RTVSPropertyOp31
 70
     1
102
RTVSPropertyOp32
 70
     1
102
RTVSPropertyOp33
 70
     1
102
RTVSPropertyOp34
 70
     1
102
RTVSPropertyOp35
 70
     1
102
RTVSPropertyOp36
 70
     1
102
RTVSPropertyOp37
 70
     1
102
RTVSPropertyOp38
 70
     1
102
RTVSPropertyOp39
 70
     1
102
RTVSPropertyOp40
 70
     1
102
RTVSPropertyOp41
 70
     1
102
RTVSPropertyOp42
 70
     1
102
RTVSPropertyOp43
 70
     1
102
RTVSPropertyOp44
 70
     1
102
RTVSPropertyOp45
 70
     1
102
RTVSPropertyOp46
 70
     1
102
RTVSPropertyOp47
 70
     1
102
RTVSPropertyOp48
 70
     1
102
RTVSPropertyOp49
 70
     1
102
RTVSPropertyOp50
 70
     1
102
RTVSPropertyOp51
 70
     0
102
RTVSPropertyOp52
 70
     0
102
RTVSPropertyOp53
 70
     1
102
RTVSPropertyOp54
 70
     1
102
RTVSPropertyOp55
 70
     1
102
RTVSPropertyOp56
 70
     1
102
RTVSPropertyOp57
 70
     1
102
RTVSPost2010Prop28
280
     0
102
RTVSPost2010PropOp28
 70
     1
102
RTVSPost2010Prop29
280
     1
102
RTVSPost2010PropOp29
 70
     1
102
RTVSPost2010Prop30
280
     1
102
RTVSPost2010PropOp30
 70
     1
102
RTVSPost2010Prop31
280
     0
102
RTVSPost2010PropOp31
 70
     1
102
RTVSPost2010Prop32
280
     0
102
RTVSPost2010PropOp32
 70
     1
102
RTVSPost2010Prop33
280
     0
102
RTVSPost2010PropOp33
 70
     1
102
RTVSPost2010Prop34
280
     0
102
RTVSPost2010PropOp34
 70
     1
102
RTVSPost2010Prop35
280
     0
102
RTVSPost2010PropOp35
 70
     1
102
RTVSPost2010Prop36
280
     0
102
RTVSPost2010PropOp36
 70
     1
102
RTVSPost2010Prop37
 90
       50
102
RTVSPost2010PropOp37
 70
     1
102
RTVSPost2010Prop38
140
0.0
102
RTVSPost2010PropOp38
 70
     1
102
RTVSPost2010Prop39
140
1.0
102
RTVSPost2010PropOp39
 70
     1
102
RTVSPost2010Prop40
 90
        0
102
RTVSPost2010PropOp40
 70
     1
102
RTVSPost2010Prop41ColorIndex
 90
       18
102
RTVSPost2010Prop41ColorRGB
 90
        0
102
RTVSPost2010PropOp41
 70
     1
102
RTVSPost2010Prop42
 90
       50
102
RTVSPost2010PropOp42
 70
     1
102
RTVSPost2010Prop43
 90
        3
102
RTVSPost2010PropOp43
 70
     1
102
RTVSPost2010Prop44ColorIndex
 90
        5
102
RTVSPost2010Prop44ColorRGB
 90
      255
102
RTVSPost2010PropOp44
 70
     1
102
RTVSPost2010Prop45
280
     0
102
RTVSPost2010PropOp45
 70
     1
102
RTVSPost2010Prop46
 90
       50
102
RTVSPost2010PropOp46
 70
     1
102
RTVSPost2010Prop47
 90
       50
102
RTVSPost2010PropOp47
 70
     1
102
RTVSPost2010Prop48
 90
       50
102
RTVSPost2010PropOp48
 70
     1
102
RTVSPost2010Prop49
280
     0
102
RTVSPost2010PropOp49
 70
     1
102
RTVSPost2010Prop50
 90
       50
102
RTVSPost2010PropOp50
 70
     1
102
RTVSPost2010Prop51ColorIndex
 90
      256
102
RTVSPost2010Prop51ColorRGB
 90
-16777216
102
RTVSPost2010PropOp51
 70
     0
102
RTVSPost2010Prop52
140
1.0
102
RTVSPost2010PropOp52
 70
     0
102
RTVSPost2010Prop53
 90
        2
102
RTVSPost2010PropOp53
 70
     1
102
RTVSPost2010Prop54
  1
strokes_ogs.tif
102
RTVSPost2010PropOp54
 70
     1
102
RTVSPost2010Prop55
280
     0
102
RTVSPost2010PropOp55
 70
     1
102
RTVSPost2010Prop56
140
1.0
102
RTVSPost2010PropOp56
 70
     1
102
RTVSPost2010Prop57
140
1.0
102
RTVSPost2010PropOp57
 70
     1
  0
XRECORD
  5
145
102
{ACAD_REACTORS
330
144
102
}
330
144
100
AcDbXrecord
280
     1
102
RTVSPropertyOp0
 70
     1
102
RTVSPropertyOp1
 70
     1
102
RTVSPropertyOp2
 70
     1
102
RTVSPropertyOp3
 70
     1
102
RTVSPropertyOp4
 70
     1
102
RTVSPropertyOp5
 70
     1
102
RTVSPropertyOp6
 70
     1
102
RTVSPropertyOp7
 70
     1
102
RTVSPropertyOp8
 70
     1
102
RTVSPropertyOp9
 70
     1
102
RTVSPropertyOp10
 70
     1
102
RTVSPropertyOp11
 70
     1
102
RTVSPropertyOp12
 70
     1
102
RTVSPropertyOp13
 70
     1
102
RTVSPropertyOp14
 70
     1
102
RTVSPropertyOp15
 70
     1
102
RTVSPropertyOp16
 70
     1
102
RTVSPropertyOp17
 70
     1
102
RTVSPropertyOp18
 70
     1
102
RTVSPropertyOp19
 70
     1
102
RTVSPropertyOp20
 70
     1
102
RTVSPropertyOp21
 70
     1
102
RTVSPropertyOp22
 70
     1
102
RTVSPropertyOp23
 70
     1
102
RTVSPropertyOp24
 70
     1
102
RTVSPropertyOp25
 70
     1
102
RTVSPropertyOp26
 70
     1
102
RTVSPropertyOp27
 70
     1
102
RTVSPropertyOp28
 70
     1
102
RTVSPropertyOp29
 70
     1
102
RTVSPropertyOp30
 70
     1
102
RTVSPropertyOp31
 70
     1
102
RTVSPropertyOp32
 70
     1
102
RTVSPropertyOp33
 70
     1
102
RTVSPropertyOp34
 70
     1
102
RTVSPropertyOp35
 70
     1
102
RTVSPropertyOp36
 70
     1
102
RTVSPropertyOp37
 70
     1
102
RTVSPropertyOp38
 70
     1
102
RTVSPropertyOp39
 70
     1
102
RTVSPropertyOp40
 70
     1
102
RTVSPropertyOp41
 70
     1
102
RTVSPropertyOp42
 70
     1
102
RTVSPropertyOp43
 70
     1
102
RTVSPropertyOp44
 70
     1
102
RTVSPropertyOp45
 70
     1
102
RTVSPropertyOp46
 70
     1
102
RTVSPropertyOp47
 70
     1
102
RTVSPropertyOp48
 70
     1
102
RTVSPropertyOp49
 70
     1
102
RTVSPropertyOp50
 70
     1
102
RTVSPropertyOp51
 70
     0
102
RTVSPropertyOp52
 70
     0
102
RTVSPropertyOp53
 70
     1
102
RTVSPropertyOp54
 70
     1
102
RTVSPropertyOp55
 70
     1
102
RTVSPropertyOp56
 70
     1
102
RTVSPropertyOp57
 70
     1
102
RTVSPost2010Prop28
280
     0
102
RTVSPost2010PropOp28
 70
     1
102
RTVSPost2010Prop29
280
     1
102
RTVSPost2010PropOp29
 70
     1
102
RTVSPost2010Prop30
280
     1
102
RTVSPost2010PropOp30
 70
     1
102
RTVSPost2010Prop31
280
     0
102
RTVSPost2010PropOp31
 70
     1
102
RTVSPost2010Prop32
280
     0
102
RTVSPost2010PropOp32
 70
     1
102
RTVSPost2010Prop33
280
     0
102
RTVSPost2010PropOp33
 70
     1
102
RTVSPost2010Prop34
280
     0
102
RTVSPost2010PropOp34
 70
     1
102
RTVSPost2010Prop35
280
     0
102
RTVSPost2010PropOp35
 70
     1
102
RTVSPost2010Prop36
280
     0
102
RTVSPost2010PropOp36
 70
     1
102
RTVSPost2010Prop37
 90
       50
102
RTVSPost2010PropOp37
 70
     1
102
RTVSPost2010Prop38
140
0.0
102
RTVSPost2010PropOp38
 70
     1
102
RTVSPost2010Prop39
140
1.0
102
RTVSPost2010PropOp39
 70
     1
102
RTVSPost2010Prop40
 90
        0
102
RTVSPost2010PropOp40
 70
     1
102
RTVSPost2010Prop41ColorIndex
 90
       18
102
RTVSPost2010Prop41ColorRGB
 90
        0
102
RTVSPost2010PropOp41
 70
     1
102
RTVSPost2010Prop42
 90
       50
102
RTVSPost2010PropOp42
 70
     1
102
RTVSPost2010Prop43
 90
        3
102
RTVSPost2010PropOp43
 70
     1
102
RTVSPost2010Prop44ColorIndex
 90
        5
102
RTVSPost2010Prop44ColorRGB
 90
      255
102
RTVSPost2010PropOp44
 70
     1
102
RTVSPost2010Prop45
280
     0
102
RTVSPost2010PropOp45
 70
     1
102
RTVSPost2010Prop46
 90
       50
102
RTVSPost2010PropOp46
 70
     1
102
RTVSPost2010Prop47
 90
       50
102
RTVSPost2010PropOp47
 70
     1
102
RTVSPost2010Prop48
 90
       50
102
RTVSPost2010PropOp48
 70
     1
102
RTVSPost2010Prop49
280
     0
102
RTVSPost2010PropOp49
 70
     1
102
RTVSPost2010Prop50
 90
       50
102
RTVSPost2010PropOp50
 70
     1
102
RTVSPost2010Prop51ColorIndex
 90
      256
102
RTVSPost2010Prop51ColorRGB
 90
-16777216
102
RTVSPost2010PropOp51
 70
     0
102
RTVSPost2010Prop52
140
1.0
102
RTVSPost2010PropOp52
 70
     0
102
RTVSPost2010Prop53
 90
        2
102
RTVSPost2010PropOp53
 70
     1
102
RTVSPost2010Prop54
  1
strokes_ogs.tif
102
RTVSPost2010PropOp54
 70
     1
102
RTVSPost2010Prop55
280
     0
102
RTVSPost2010PropOp55
 70
     1
102
RTVSPost2010Prop56
140
1.0
102
RTVSPost2010PropOp56
 70
     1
102
RTVSPost2010Prop57
140
1.0
102
RTVSPost2010PropOp57
 70
     1
  0
XRECORD
  5
147
102
{ACAD_REACTORS
330
146
102
}
330
146
100
AcDbXrecord
280
     1
102
RTVSPropertyOp0
 70
     1
102
RTVSPropertyOp1
 70
     1
102
RTVSPropertyOp2
 70
     1
102
RTVSPropertyOp3
 70
     1
102
RTVSPropertyOp4
 70
     1
102
RTVSPropertyOp5
 70
     1
102
RTVSPropertyOp6
 70
     1
102
RTVSPropertyOp7
 70
     1
102
RTVSPropertyOp8
 70
     1
102
RTVSPropertyOp9
 70
     1
102
RTVSPropertyOp10
 70
     1
102
RTVSPropertyOp11
 70
     1
102
RTVSPropertyOp12
 70
     1
102
RTVSPropertyOp13
 70
     1
102
RTVSPropertyOp14
 70
     1
102
RTVSPropertyOp15
 70
     1
102
RTVSPropertyOp16
 70
     1
102
RTVSPropertyOp17
 70
     1
102
RTVSPropertyOp18
 70
     1
102
RTVSPropertyOp19
 70
     1
102
RTVSPropertyOp20
 70
     1
102
RTVSPropertyOp21
 70
     1
102
RTVSPropertyOp22
 70
     1
102
RTVSPropertyOp23
 70
     1
102
RTVSPropertyOp24
 70
     1
102
RTVSPropertyOp25
 70
     1
102
RTVSPropertyOp26
 70
     1
102
RTVSPropertyOp27
 70
     1
102
RTVSPropertyOp28
 70
     1
102
RTVSPropertyOp29
 70
     1
102
RTVSPropertyOp30
 70
     1
102
RTVSPropertyOp31
 70
     1
102
RTVSPropertyOp32
 70
     1
102
RTVSPropertyOp33
 70
     1
102
RTVSPropertyOp34
 70
     1
102
RTVSPropertyOp35
 70
     1
102
RTVSPropertyOp36
 70
     1
102
RTVSPropertyOp37
 70
     1
102
RTVSPropertyOp38
 70
     1
102
RTVSPropertyOp39
 70
     1
102
RTVSPropertyOp40
 70
     1
102
RTVSPropertyOp41
 70
     1
102
RTVSPropertyOp42
 70
     1
102
RTVSPropertyOp43
 70
     1
102
RTVSPropertyOp44
 70
     1
102
RTVSPropertyOp45
 70
     1
102
RTVSPropertyOp46
 70
     1
102
RTVSPropertyOp47
 70
     1
102
RTVSPropertyOp48
 70
     1
102
RTVSPropertyOp49
 70
     1
102
RTVSPropertyOp50
 70
     1
102
RTVSPropertyOp51
 70
     0
102
RTVSPropertyOp52
 70
     0
102
RTVSPropertyOp53
 70
     1
102
RTVSPropertyOp54
 70
     1
102
RTVSPropertyOp55
 70
     1
102
RTVSPropertyOp56
 70
     1
102
RTVSPropertyOp57
 70
     1
102
RTVSPost2010Prop28
280
     0
102
RTVSPost2010PropOp28
 70
     1
102
RTVSPost2010Prop29
280
     1
102
RTVSPost2010PropOp29
 70
     1
102
RTVSPost2010Prop30
280
     1
102
RTVSPost2010PropOp30
 70
     1
102
RTVSPost2010Prop31
280
     0
102
RTVSPost2010PropOp31
 70
     1
102
RTVSPost2010Prop32
280
     0
102
RTVSPost2010PropOp32
 70
     1
102
RTVSPost2010Prop33
280
     0
102
RTVSPost2010PropOp33
 70
     1
102
RTVSPost2010Prop34
280
     0
102
RTVSPost2010PropOp34
 70
     1
102
RTVSPost2010Prop35
280
     0
102
RTVSPost2010PropOp35
 70
     1
102
RTVSPost2010Prop36
280
     0
102
RTVSPost2010PropOp36
 70
     1
102
RTVSPost2010Prop37
 90
       50
102
RTVSPost2010PropOp37
 70
     1
102
RTVSPost2010Prop38
140
0.0
102
RTVSPost2010PropOp38
 70
     1
102
RTVSPost2010Prop39
140
1.0
102
RTVSPost2010PropOp39
 70
     1
102
RTVSPost2010Prop40
 90
        0
102
RTVSPost2010PropOp40
 70
     1
102
RTVSPost2010Prop41ColorIndex
 90
       18
102
RTVSPost2010Prop41ColorRGB
 90
        0
102
RTVSPost2010PropOp41
 70
     1
102
RTVSPost2010Prop42
 90
       50
102
RTVSPost2010PropOp42
 70
     1
102
RTVSPost2010Prop43
 90
        3
102
RTVSPost2010PropOp43
 70
     1
102
RTVSPost2010Prop44ColorIndex
 90
        5
102
RTVSPost2010Prop44ColorRGB
 90
      255
102
RTVSPost2010PropOp44
 70
     1
102
RTVSPost2010Prop45
280
     0
102
RTVSPost2010PropOp45
 70
     1
102
RTVSPost2010Prop46
 90
       50
102
RTVSPost2010PropOp46
 70
     1
102
RTVSPost2010Prop47
 90
       50
102
RTVSPost2010PropOp47
 70
     1
102
RTVSPost2010Prop48
 90
       50
102
RTVSPost2010PropOp48
 70
     1
102
RTVSPost2010Prop49
280
     0
102
RTVSPost2010PropOp49
 70
     1
102
RTVSPost2010Prop50
 90
       50
102
RTVSPost2010PropOp50
 70
     1
102
RTVSPost2010Prop51ColorIndex
 90
      256
102
RTVSPost2010Prop51ColorRGB
 90
-16777216
102
RTVSPost2010PropOp51
 70
     0
102
RTVSPost2010Prop52
140
1.0
102
RTVSPost2010PropOp52
 70
     0
102
RTVSPost2010Prop53
 90
        2
102
RTVSPost2010PropOp53
 70
     1
102
RTVSPost2010Prop54
  1
strokes_ogs.tif
102
RTVSPost2010PropOp54
 70
     1
102
RTVSPost2010Prop55
280
     0
102
RTVSPost2010PropOp55
 70
     1
102
RTVSPost2010Prop56
140
1.0
102
RTVSPost2010PropOp56
 70
     1
102
RTVSPost2010Prop57
140
1.0
102
RTVSPost2010PropOp57
 70
     1
  0
XRECORD
  5
149
102
{ACAD_REACTORS
330
148
102
}
330
148
100
AcDbXrecord
280
     1
102
RTVSPropertyOp0
 70
     1
102
RTVSPropertyOp1
 70
     1
102
RTVSPropertyOp2
 70
     1
102
RTVSPropertyOp3
 70
     1
102
RTVSPropertyOp4
 70
     1
102
RTVSPropertyOp5
 70
     1
102
RTVSPropertyOp6
 70
     1
102
RTVSPropertyOp7
 70
     1
102
RTVSPropertyOp8
 70
     1
102
RTVSPropertyOp9
 70
     1
102
RTVSPropertyOp10
 70
     1
102
RTVSPropertyOp11
 70
     1
102
RTVSPropertyOp12
 70
     1
102
RTVSPropertyOp13
 70
     1
102
RTVSPropertyOp14
 70
     1
102
RTVSPropertyOp15
 70
     1
102
RTVSPropertyOp16
 70
     1
102
RTVSPropertyOp17
 70
     1
102
RTVSPropertyOp18
 70
     1
102
RTVSPropertyOp19
 70
     1
102
RTVSPropertyOp20
 70
     1
102
RTVSPropertyOp21
 70
     1
102
RTVSPropertyOp22
 70
     1
102
RTVSPropertyOp23
 70
     1
102
RTVSPropertyOp24
 70
     1
102
RTVSPropertyOp25
 70
     1
102
RTVSPropertyOp26
 70
     1
102
RTVSPropertyOp27
 70
     1
102
RTVSPropertyOp28
 70
     1
102
RTVSPropertyOp29
 70
     1
102
RTVSPropertyOp30
 70
     1
102
RTVSPropertyOp31
 70
     1
102
RTVSPropertyOp32
 70
     1
102
RTVSPropertyOp33
 70
     1
102
RTVSPropertyOp34
 70
     1
102
RTVSPropertyOp35
 70
     1
102
RTVSPropertyOp36
 70
     1
102
RTVSPropertyOp37
 70
     1
102
RTVSPropertyOp38
 70
     1
102
RTVSPropertyOp39
 70
     1
102
RTVSPropertyOp40
 70
     1
102
RTVSPropertyOp41
 70
     1
102
RTVSPropertyOp42
 70
     1
102
RTVSPropertyOp43
 70
     1
102
RTVSPropertyOp44
 70
     1
102
RTVSPropertyOp45
 70
     1
102
RTVSPropertyOp46
 70
     1
102
RTVSPropertyOp47
 70
     1
102
RTVSPropertyOp48
 70
     1
102
RTVSPropertyOp49
 70
     1
102
RTVSPropertyOp50
 70
     1
102
RTVSPropertyOp51
 70
     0
102
RTVSPropertyOp52
 70
     0
102
RTVSPropertyOp53
 70
     1
102
RTVSPropertyOp54
 70
     1
102
RTVSPropertyOp55
 70
     1
102
RTVSPropertyOp56
 70
     1
102
RTVSPropertyOp57
 70
     1
102
RTVSPost2010Prop28
280
     0
102
RTVSPost2010PropOp28
 70
     1
102
RTVSPost2010Prop29
280
     1
102
RTVSPost2010PropOp29
 70
     1
102
RTVSPost2010Prop30
280
     1
102
RTVSPost2010PropOp30
 70
     1
102
RTVSPost2010Prop31
280
     0
102
RTVSPost2010PropOp31
 70
     1
102
RTVSPost2010Prop32
280
     0
102
RTVSPost2010PropOp32
 70
     1
102
RTVSPost2010Prop33
280
     0
102
RTVSPost2010PropOp33
 70
     1
102
RTVSPost2010Prop34
280
     0
102
RTVSPost2010PropOp34
 70
     1
102
RTVSPost2010Prop35
280
     0
102
RTVSPost2010PropOp35
 70
     1
102
RTVSPost2010Prop36
280
     0
102
RTVSPost2010PropOp36
 70
     1
102
RTVSPost2010Prop37
 90
       50
102
RTVSPost2010PropOp37
 70
     1
102
RTVSPost2010Prop38
140
0.0
102
RTVSPost2010PropOp38
 70
     1
102
RTVSPost2010Prop39
140
1.0
102
RTVSPost2010PropOp39
 70
     1
102
RTVSPost2010Prop40
 90
        0
102
RTVSPost2010PropOp40
 70
     1
102
RTVSPost2010Prop41ColorIndex
 90
       18
102
RTVSPost2010Prop41ColorRGB
 90
        0
102
RTVSPost2010PropOp41
 70
     1
102
RTVSPost2010Prop42
 90
       50
102
RTVSPost2010PropOp42
 70
     1
102
RTVSPost2010Prop43
 90
        3
102
RTVSPost2010PropOp43
 70
     1
102
RTVSPost2010Prop44ColorIndex
 90
        5
102
RTVSPost2010Prop44ColorRGB
 90
      255
102
RTVSPost2010PropOp44
 70
     1
102
RTVSPost2010Prop45
280
     0
102
RTVSPost2010PropOp45
 70
     1
102
RTVSPost2010Prop46
 90
       50
102
RTVSPost2010PropOp46
 70
     1
102
RTVSPost2010Prop47
 90
       50
102
RTVSPost2010PropOp47
 70
     1
102
RTVSPost2010Prop48
 90
       50
102
RTVSPost2010PropOp48
 70
     1
102
RTVSPost2010Prop49
280
     0
102
RTVSPost2010PropOp49
 70
     1
102
RTVSPost2010Prop50
 90
       50
102
RTVSPost2010PropOp50
 70
     1
102
RTVSPost2010Prop51ColorIndex
 90
      256
102
RTVSPost2010Prop51ColorRGB
 90
-16777216
102
RTVSPost2010PropOp51
 70
     0
102
RTVSPost2010Prop52
140
1.0
102
RTVSPost2010PropOp52
 70
     0
102
RTVSPost2010Prop53
 90
        2
102
RTVSPost2010PropOp53
 70
     1
102
RTVSPost2010Prop54
  1
strokes_ogs.tif
102
RTVSPost2010PropOp54
 70
     1
102
RTVSPost2010Prop55
280
     0
102
RTVSPost2010PropOp55
 70
     1
102
RTVSPost2010Prop56
140
1.0
102
RTVSPost2010PropOp56
 70
     1
102
RTVSPost2010Prop57
140
1.0
102
RTVSPost2010PropOp57
 70
     1
  0
XRECORD
  5
14F
102
{ACAD_REACTORS
330
14E
102
}
330
14E
100
AcDbXrecord
280
     1
102
RTVSPropertyOp0
 70
     1
102
RTVSPropertyOp1
 70
     1
102
RTVSPropertyOp2
 70
     1
102
RTVSPropertyOp3
 70
     1
102
RTVSPropertyOp4
 70
     1
102
RTVSPropertyOp5
 70
     1
102
RTVSPropertyOp6
 70
     1
102
RTVSPropertyOp7
 70
     1
102
RTVSPropertyOp8
 70
     1
102
RTVSPropertyOp9
 70
     1
102
RTVSPropertyOp10
 70
     1
102
RTVSPropertyOp11
 70
     1
102
RTVSPropertyOp12
 70
     1
102
RTVSPropertyOp13
 70
     1
102
RTVSPropertyOp14
 70
     1
102
RTVSPropertyOp15
 70
     1
102
RTVSPropertyOp16
 70
     1
102
RTVSPropertyOp17
 70
     1
102
RTVSPropertyOp18
 70
     1
102
RTVSPropertyOp19
 70
     1
102
RTVSPropertyOp20
 70
     1
102
RTVSPropertyOp21
 70
     1
102
RTVSPropertyOp22
 70
     1
102
RTVSPropertyOp23
 70
     1
102
RTVSPropertyOp24
 70
     1
102
RTVSPropertyOp25
 70
     1
102
RTVSPropertyOp26
 70
     1
102
RTVSPropertyOp27
 70
     1
102
RTVSPropertyOp28
 70
     1
102
RTVSPropertyOp29
 70
     1
102
RTVSPropertyOp30
 70
     1
102
RTVSPropertyOp31
 70
     1
102
RTVSPropertyOp32
 70
     1
102
RTVSPropertyOp33
 70
     1
102
RTVSPropertyOp34
 70
     1
102
RTVSPropertyOp35
 70
     1
102
RTVSPropertyOp36
 70
     1
102
RTVSPropertyOp37
 70
     1
102
RTVSPropertyOp38
 70
     1
102
RTVSPropertyOp39
 70
     1
102
RTVSPropertyOp40
 70
     1
102
RTVSPropertyOp41
 70
     1
102
RTVSPropertyOp42
 70
     1
102
RTVSPropertyOp43
 70
     1
102
RTVSPropertyOp44
 70
     1
102
RTVSPropertyOp45
 70
     1
102
RTVSPropertyOp46
 70
     1
102
RTVSPropertyOp47
 70
     1
102
RTVSPropertyOp48
 70
     1
102
RTVSPropertyOp49
 70
     1
102
RTVSPropertyOp50
 70
     1
102
RTVSPropertyOp51
 70
     0
102
RTVSPropertyOp52
 70
     0
102
RTVSPropertyOp53
 70
     1
102
RTVSPropertyOp54
 70
     1
102
RTVSPropertyOp55
 70
     1
102
RTVSPropertyOp56
 70
     1
102
RTVSPropertyOp57
 70
     1
102
RTVSPost2010Prop28
280
     0
102
RTVSPost2010PropOp28
 70
     1
102
RTVSPost2010Prop29
280
     1
102
RTVSPost2010PropOp29
 70
     1
102
RTVSPost2010Prop30
280
     1
102
RTVSPost2010PropOp30
 70
     1
102
RTVSPost2010Prop31
280
     0
102
RTVSPost2010PropOp31
 70
     1
102
RTVSPost2010Prop32
280
     0
102
RTVSPost2010PropOp32
 70
     1
102
RTVSPost2010Prop33
280
     0
102
RTVSPost2010PropOp33
 70
     1
102
RTVSPost2010Prop34
280
     0
102
RTVSPost2010PropOp34
 70
     1
102
RTVSPost2010Prop35
280
     0
102
RTVSPost2010PropOp35
 70
     1
102
RTVSPost2010Prop36
280
     0
102
RTVSPost2010PropOp36
 70
     1
102
RTVSPost2010Prop37
 90
       50
102
RTVSPost2010PropOp37
 70
     1
102
RTVSPost2010Prop38
140
0.0
102
RTVSPost2010PropOp38
 70
     1
102
RTVSPost2010Prop39
140
1.0
102
RTVSPost2010PropOp39
 70
     1
102
RTVSPost2010Prop40
 90
        0
102
RTVSPost2010PropOp40
 70
     1
102
RTVSPost2010Prop41ColorIndex
 90
       18
102
RTVSPost2010Prop41ColorRGB
 90
        0
102
RTVSPost2010PropOp41
 70
     1
102
RTVSPost2010Prop42
 90
       50
102
RTVSPost2010PropOp42
 70
     1
102
RTVSPost2010Prop43
 90
        3
102
RTVSPost2010PropOp43
 70
     1
102
RTVSPost2010Prop44ColorIndex
 90
        5
102
RTVSPost2010Prop44ColorRGB
 90
      255
102
RTVSPost2010PropOp44
 70
     1
102
RTVSPost2010Prop45
280
     0
102
RTVSPost2010PropOp45
 70
     1
102
RTVSPost2010Prop46
 90
       50
102
RTVSPost2010PropOp46
 70
     1
102
RTVSPost2010Prop47
 90
       50
102
RTVSPost2010PropOp47
 70
     1
102
RTVSPost2010Prop48
 90
       50
102
RTVSPost2010PropOp48
 70
     1
102
RTVSPost2010Prop49
280
     0
102
RTVSPost2010PropOp49
 70
     1
102
RTVSPost2010Prop50
 90
       50
102
RTVSPost2010PropOp50
 70
     1
102
RTVSPost2010Prop51ColorIndex
 90
      256
102
RTVSPost2010Prop51ColorRGB
 90
-16777216
102
RTVSPost2010PropOp51
 70
     0
102
RTVSPost2010Prop52
140
1.0
102
RTVSPost2010PropOp52
 70
     0
102
RTVSPost2010Prop53
 90
        2
102
RTVSPost2010PropOp53
 70
     1
102
RTVSPost2010Prop54
  1
strokes_ogs.tif
102
RTVSPost2010PropOp54
 70
     1
102
RTVSPost2010Prop55
280
     0
102
RTVSPost2010PropOp55
 70
     1
102
RTVSPost2010Prop56
140
1.0
102
RTVSPost2010PropOp56
 70
     1
102
RTVSPost2010Prop57
140
1.0
102
RTVSPost2010PropOp57
 70
     1
  0
XRECORD
  5
163
102
{ACAD_REACTORS
330
162
102
}
330
162
100
AcDbXrecord
280
     1
102
RTVSPropertyOp0
 70
     0
102
RTVSPropertyOp1
 70
     0
102
RTVSPropertyOp2
 70
     0
102
RTVSPropertyOp3
 70
     0
102
RTVSPropertyOp4
 70
     0
102
RTVSPropertyOp5
 70
     0
102
RTVSPropertyOp6
 70
     0
102
RTVSPropertyOp7
 70
     0
102
RTVSPropertyOp8
 70
     0
102
RTVSPropertyOp9
 70
     0
102
RTVSPropertyOp10
 70
     0
102
RTVSPropertyOp11
 70
     0
102
RTVSPropertyOp12
 70
     0
102
RTVSPropertyOp13
 70
     0
102
RTVSPropertyOp14
 70
     2
102
RTVSPropertyOp15
 70
     0
102
RTVSPropertyOp16
 70
     0
102
RTVSPropertyOp17
 70
     0
102
RTVSPropertyOp18
 70
     0
102
RTVSPropertyOp19
 70
     0
102
RTVSPropertyOp20
 70
     0
102
RTVSPropertyOp21
 70
     0
102
RTVSPropertyOp22
 70
     0
102
RTVSPropertyOp23
 70
     0
102
RTVSPropertyOp24
 70
     0
102
RTVSPropertyOp25
 70
     0
102
RTVSPropertyOp26
 70
     0
102
RTVSPropertyOp27
 70
     0
102
RTVSPropertyOp28
 70
     0
102
RTVSPropertyOp29
 70
     0
102
RTVSPropertyOp30
 70
     0
102
RTVSPropertyOp31
 70
     0
102
RTVSPropertyOp32
 70
     0
102
RTVSPropertyOp33
 70
     0
102
RTVSPropertyOp34
 70
     0
102
RTVSPropertyOp35
 70
     0
102
RTVSPropertyOp36
 70
     0
102
RTVSPropertyOp37
 70
     0
102
RTVSPropertyOp38
 70
     0
102
RTVSPropertyOp39
 70
     0
102
RTVSPropertyOp40
 70
     0
102
RTVSPropertyOp41
 70
     0
102
RTVSPropertyOp42
 70
     0
102
RTVSPropertyOp43
 70
     0
102
RTVSPropertyOp44
 70
     0
102
RTVSPropertyOp45
 70
     0
102
RTVSPropertyOp46
 70
     0
102
RTVSPropertyOp47
 70
     0
102
RTVSPropertyOp48
 70
     0
102
RTVSPropertyOp49
 70
     0
102
RTVSPropertyOp50
 70
     0
102
RTVSPropertyOp51
 70
     0
102
RTVSPropertyOp52
 70
     0
102
RTVSPropertyOp53
 70
     0
102
RTVSPropertyOp54
 70
     0
102
RTVSPropertyOp55
 70
     0
102
RTVSPropertyOp56
 70
     0
102
RTVSPropertyOp57
 70
     0
102
RTVSPost2010Prop28
280
     0
102
RTVSPost2010PropOp28
 70
     0
102
RTVSPost2010Prop29
280
     1
102
RTVSPost2010PropOp29
 70
     0
102
RTVSPost2010Prop30
280
     1
102
RTVSPost2010PropOp30
 70
     0
102
RTVSPost2010Prop31
280
     0
102
RTVSPost2010PropOp31
 70
     0
102
RTVSPost2010Prop32
280
     0
102
RTVSPost2010PropOp32
 70
     0
102
RTVSPost2010Prop33
280
     0
102
RTVSPost2010PropOp33
 70
     0
102
RTVSPost2010Prop34
280
     0
102
RTVSPost2010PropOp34
 70
     0
102
RTVSPost2010Prop35
280
     0
102
RTVSPost2010PropOp35
 70
     0
102
RTVSPost2010Prop36
280
     0
102
RTVSPost2010PropOp36
 70
     0
102
RTVSPost2010Prop37
 90
       50
102
RTVSPost2010PropOp37
 70
     0
102
RTVSPost2010Prop38
140
0.0
102
RTVSPost2010PropOp38
 70
     0
102
RTVSPost2010Prop39
140
1.0
102
RTVSPost2010PropOp39
 70
     0
102
RTVSPost2010Prop40
 90
        0
102
RTVSPost2010PropOp40
 70
     0
102
RTVSPost2010Prop41ColorIndex
 90
       18
102
RTVSPost2010Prop41ColorRGB
 90
        0
102
RTVSPost2010PropOp41
 70
     0
102
RTVSPost2010Prop42
 90
       50
102
RTVSPost2010PropOp42
 70
     0
102
RTVSPost2010Prop43
 90
        3
102
RTVSPost2010PropOp43
 70
     0
102
RTVSPost2010Prop44ColorIndex
 90
        5
102
RTVSPost2010Prop44ColorRGB
 90
      255
102
RTVSPost2010PropOp44
 70
     0
102
RTVSPost2010Prop45
280
     0
102
RTVSPost2010PropOp45
 70
     0
102
RTVSPost2010Prop46
 90
       50
102
RTVSPost2010PropOp46
 70
     0
102
RTVSPost2010Prop47
 90
       50
102
RTVSPost2010PropOp47
 70
     0
102
RTVSPost2010Prop48
 90
       50
102
RTVSPost2010PropOp48
 70
     0
102
RTVSPost2010Prop49
280
     0
102
RTVSPost2010PropOp49
 70
     0
102
RTVSPost2010Prop50
 90
       50
102
RTVSPost2010PropOp50
 70
     0
102
RTVSPost2010Prop51ColorIndex
 90
      256
102
RTVSPost2010Prop51ColorRGB
 90
-16777216
102
RTVSPost2010PropOp51
 70
     0
102
RTVSPost2010Prop52
140
1.0
102
RTVSPost2010PropOp52
 70
     0
102
RTVSPost2010Prop53
 90
        2
102
RTVSPost2010PropOp53
 70
     0
102
RTVSPost2010Prop54
  1
strokes_ogs.tif
102
RTVSPost2010PropOp54
 70
     0
102
RTVSPost2010Prop55
280
     0
102
RTVSPost2010PropOp55
 70
     0
102
RTVSPost2010Prop56
140
1.0
102
RTVSPost2010PropOp56
 70
     0
102
RTVSPost2010Prop57
140
1.0
102
RTVSPost2010PropOp57
 70
     0
  0
XRECORD
  5
15D
102
{ACAD_REACTORS
330
15C
102
}
330
15C
100
AcDbXrecord
280
     1
102
RTVSPropertyOp0
 70
     1
102
RTVSPropertyOp1
 70
     1
102
RTVSPropertyOp2
 70
     1
102
RTVSPropertyOp3
 70
     1
102
RTVSPropertyOp4
 70
     1
102
RTVSPropertyOp5
 70
     1
102
RTVSPropertyOp6
 70
     1
102
RTVSPropertyOp7
 70
     1
102
RTVSPropertyOp8
 70
     1
102
RTVSPropertyOp9
 70
     1
102
RTVSPropertyOp10
 70
     1
102
RTVSPropertyOp11
 70
     1
102
RTVSPropertyOp12
 70
     1
102
RTVSPropertyOp13
 70
     1
102
RTVSPropertyOp14
 70
     1
102
RTVSPropertyOp15
 70
     1
102
RTVSPropertyOp16
 70
     1
102
RTVSPropertyOp17
 70
     1
102
RTVSPropertyOp18
 70
     1
102
RTVSPropertyOp19
 70
     1
102
RTVSPropertyOp20
 70
     1
102
RTVSPropertyOp21
 70
     1
102
RTVSPropertyOp22
 70
     1
102
RTVSPropertyOp23
 70
     1
102
RTVSPropertyOp24
 70
     1
102
RTVSPropertyOp25
 70
     1
102
RTVSPropertyOp26
 70
     1
102
RTVSPropertyOp27
 70
     1
102
RTVSPropertyOp28
 70
     1
102
RTVSPropertyOp29
 70
     1
102
RTVSPropertyOp30
 70
     1
102
RTVSPropertyOp31
 70
     1
102
RTVSPropertyOp32
 70
     1
102
RTVSPropertyOp33
 70
     1
102
RTVSPropertyOp34
 70
     1
102
RTVSPropertyOp35
 70
     1
102
RTVSPropertyOp36
 70
     1
102
RTVSPropertyOp37
 70
     1
102
RTVSPropertyOp38
 70
     1
102
RTVSPropertyOp39
 70
     1
102
RTVSPropertyOp40
 70
     1
102
RTVSPropertyOp41
 70
     1
102
RTVSPropertyOp42
 70
     1
102
RTVSPropertyOp43
 70
     1
102
RTVSPropertyOp44
 70
     1
102
RTVSPropertyOp45
 70
     1
102
RTVSPropertyOp46
 70
     1
102
RTVSPropertyOp47
 70
     1
102
RTVSPropertyOp48
 70
     1
102
RTVSPropertyOp49
 70
     1
102
RTVSPropertyOp50
 70
     1
102
RTVSPropertyOp51
 70
     0
102
RTVSPropertyOp52
 70
     0
102
RTVSPropertyOp53
 70
     1
102
RTVSPropertyOp54
 70
     1
102
RTVSPropertyOp55
 70
     1
102
RTVSPropertyOp56
 70
     1
102
RTVSPropertyOp57
 70
     1
102
RTVSPost2010Prop28
280
     0
102
RTVSPost2010PropOp28
 70
     1
102
RTVSPost2010Prop29
280
     1
102
RTVSPost2010PropOp29
 70
     1
102
RTVSPost2010Prop30
280
     1
102
RTVSPost2010PropOp30
 70
     1
102
RTVSPost2010Prop31
280
     0
102
RTVSPost2010PropOp31
 70
     1
102
RTVSPost2010Prop32
280
     0
102
RTVSPost2010PropOp32
 70
     1
102
RTVSPost2010Prop33
280
     0
102
RTVSPost2010PropOp33
 70
     1
102
RTVSPost2010Prop34
280
     0
102
RTVSPost2010PropOp34
 70
     1
102
RTVSPost2010Prop35
280
     0
102
RTVSPost2010PropOp35
 70
     1
102
RTVSPost2010Prop36
280
     0
102
RTVSPost2010PropOp36
 70
     1
102
RTVSPost2010Prop37
 90
       50
102
RTVSPost2010PropOp37
 70
     1
102
RTVSPost2010Prop38
140
0.0
102
RTVSPost2010PropOp38
 70
     1
102
RTVSPost2010Prop39
140
1.0
102
RTVSPost2010PropOp39
 70
     1
102
RTVSPost2010Prop40
 90
        0
102
RTVSPost2010PropOp40
 70
     1
102
RTVSPost2010Prop41ColorIndex
 90
       18
102
RTVSPost2010Prop41ColorRGB
 90
        0
102
RTVSPost2010PropOp41
 70
     1
102
RTVSPost2010Prop42
 90
       50
102
RTVSPost2010PropOp42
 70
     1
102
RTVSPost2010Prop43
 90
        3
102
RTVSPost2010PropOp43
 70
     1
102
RTVSPost2010Prop44ColorIndex
 90
        5
102
RTVSPost2010Prop44ColorRGB
 90
      255
102
RTVSPost2010PropOp44
 70
     1
102
RTVSPost2010Prop45
280
     0
102
RTVSPost2010PropOp45
 70
     1
102
RTVSPost2010Prop46
 90
       50
102
RTVSPost2010PropOp46
 70
     1
102
RTVSPost2010Prop47
 90
       50
102
RTVSPost2010PropOp47
 70
     1
102
RTVSPost2010Prop48
 90
       50
102
RTVSPost2010PropOp48
 70
     1
102
RTVSPost2010Prop49
280
     0
102
RTVSPost2010PropOp49
 70
     1
102
RTVSPost2010Prop50
 90
       50
102
RTVSPost2010PropOp50
 70
     1
102
RTVSPost2010Prop51ColorIndex
 90
      256
102
RTVSPost2010Prop51ColorRGB
 90
-16777216
102
RTVSPost2010PropOp51
 70
     0
102
RTVSPost2010Prop52
140
1.0
102
RTVSPost2010PropOp52
 70
     0
102
RTVSPost2010Prop53
 90
        2
102
RTVSPost2010PropOp53
 70
     1
102
RTVSPost2010Prop54
  1
strokes_ogs.tif
102
RTVSPost2010PropOp54
 70
     1
102
RTVSPost2010Prop55
280
     0
102
RTVSPost2010PropOp55
 70
     1
102
RTVSPost2010Prop56
140
1.0
102
RTVSPost2010PropOp56
 70
     1
102
RTVSPost2010Prop57
140
1.0
102
RTVSPost2010PropOp57
 70
     1
  0
XRECORD
  5
165
102
{ACAD_REACTORS
330
164
102
}
330
164
100
AcDbXrecord
280
     1
102
RTVSPropertyOp0
 70
     0
102
RTVSPropertyOp1
 70
     0
102
RTVSPropertyOp2
 70
     0
102
RTVSPropertyOp3
 70
     0
102
RTVSPropertyOp4
 70
     0
102
RTVSPropertyOp5
 70
     0
102
RTVSPropertyOp6
 70
     0
102
RTVSPropertyOp7
 70
     0
102
RTVSPropertyOp8
 70
     0
102
RTVSPropertyOp9
 70
     0
102
RTVSPropertyOp10
 70
     0
102
RTVSPropertyOp11
 70
     0
102
RTVSPropertyOp12
 70
     0
102
RTVSPropertyOp13
 70
     0
102
RTVSPropertyOp14
 70
     2
102
RTVSPropertyOp15
 70
     0
102
RTVSPropertyOp16
 70
     0
102
RTVSPropertyOp17
 70
     0
102
RTVSPropertyOp18
 70
     0
102
RTVSPropertyOp19
 70
     0
102
RTVSPropertyOp20
 70
     0
102
RTVSPropertyOp21
 70
     0
102
RTVSPropertyOp22
 70
     0
102
RTVSPropertyOp23
 70
     0
102
RTVSPropertyOp24
 70
     0
102
RTVSPropertyOp25
 70
     0
102
RTVSPropertyOp26
 70
     0
102
RTVSPropertyOp27
 70
     0
102
RTVSPropertyOp28
 70
     0
102
RTVSPropertyOp29
 70
     0
102
RTVSPropertyOp30
 70
     0
102
RTVSPropertyOp31
 70
     0
102
RTVSPropertyOp32
 70
     0
102
RTVSPropertyOp33
 70
     0
102
RTVSPropertyOp34
 70
     0
102
RTVSPropertyOp35
 70
     0
102
RTVSPropertyOp36
 70
     0
102
RTVSPropertyOp37
 70
     0
102
RTVSPropertyOp38
 70
     0
102
RTVSPropertyOp39
 70
     0
102
RTVSPropertyOp40
 70
     0
102
RTVSPropertyOp41
 70
     0
102
RTVSPropertyOp42
 70
     0
102
RTVSPropertyOp43
 70
     0
102
RTVSPropertyOp44
 70
     0
102
RTVSPropertyOp45
 70
     0
102
RTVSPropertyOp46
 70
     0
102
RTVSPropertyOp47
 70
     0
102
RTVSPropertyOp48
 70
     0
102
RTVSPropertyOp49
 70
     0
102
RTVSPropertyOp50
 70
     0
102
RTVSPropertyOp51
 70
     0
102
RTVSPropertyOp52
 70
     0
102
RTVSPropertyOp53
 70
     0
102
RTVSPropertyOp54
 70
     0
102
RTVSPropertyOp55
 70
     0
102
RTVSPropertyOp56
 70
     0
102
RTVSPropertyOp57
 70
     0
102
RTVSPost2010Prop28
280
     0
102
RTVSPost2010PropOp28
 70
     0
102
RTVSPost2010Prop29
280
     1
102
RTVSPost2010PropOp29
 70
     0
102
RTVSPost2010Prop30
280
     1
102
RTVSPost2010PropOp30
 70
     0
102
RTVSPost2010Prop31
280
     0
102
RTVSPost2010PropOp31
 70
     0
102
RTVSPost2010Prop32
280
     0
102
RTVSPost2010PropOp32
 70
     0
102
RTVSPost2010Prop33
280
     0
102
RTVSPost2010PropOp33
 70
     0
102
RTVSPost2010Prop34
280
     0
102
RTVSPost2010PropOp34
 70
     0
102
RTVSPost2010Prop35
280
     0
102
RTVSPost2010PropOp35
 70
     0
102
RTVSPost2010Prop36
280
     0
102
RTVSPost2010PropOp36
 70
     0
102
RTVSPost2010Prop37
 90
       50
102
RTVSPost2010PropOp37
 70
     0
102
RTVSPost2010Prop38
140
0.0
102
RTVSPost2010PropOp38
 70
     0
102
RTVSPost2010Prop39
140
1.0
102
RTVSPost2010PropOp39
 70
     0
102
RTVSPost2010Prop40
 90
        0
102
RTVSPost2010PropOp40
 70
     0
102
RTVSPost2010Prop41ColorIndex
 90
       18
102
RTVSPost2010Prop41ColorRGB
 90
        0
102
RTVSPost2010PropOp41
 70
     0
102
RTVSPost2010Prop42
 90
       50
102
RTVSPost2010PropOp42
 70
     0
102
RTVSPost2010Prop43
 90
        3
102
RTVSPost2010PropOp43
 70
     0
102
RTVSPost2010Prop44ColorIndex
 90
        5
102
RTVSPost2010Prop44ColorRGB
 90
      255
102
RTVSPost2010PropOp44
 70
     0
102
RTVSPost2010Prop45
280
     0
102
RTVSPost2010PropOp45
 70
     0
102
RTVSPost2010Prop46
 90
       50
102
RTVSPost2010PropOp46
 70
     0
102
RTVSPost2010Prop47
 90
       50
102
RTVSPost2010PropOp47
 70
     0
102
RTVSPost2010Prop48
 90
       50
102
RTVSPost2010PropOp48
 70
     0
102
RTVSPost2010Prop49
280
     0
102
RTVSPost2010PropOp49
 70
     0
102
RTVSPost2010Prop50
 90
       50
102
RTVSPost2010PropOp50
 70
     0
102
RTVSPost2010Prop51ColorIndex
 90
      256
102
RTVSPost2010Prop51ColorRGB
 90
-16777216
102
RTVSPost2010PropOp51
 70
     0
102
RTVSPost2010Prop52
140
1.0
102
RTVSPost2010PropOp52
 70
     0
102
RTVSPost2010Prop53
 90
        2
102
RTVSPost2010PropOp53
 70
     0
102
RTVSPost2010Prop54
  1
strokes_ogs.tif
102
RTVSPost2010PropOp54
 70
     0
102
RTVSPost2010Prop55
280
     0
102
RTVSPost2010PropOp55
 70
     0
102
RTVSPost2010Prop56
140
1.0
102
RTVSPost2010PropOp56
 70
     0
102
RTVSPost2010Prop57
140
1.0
102
RTVSPost2010PropOp57
 70
     0
  0
XRECORD
  5
153
102
{ACAD_REACTORS
330
152
102
}
330
152
100
AcDbXrecord
280
     1
102
RTVSPropertyOp0
 70
     1
102
RTVSPropertyOp1
 70
     1
102
RTVSPropertyOp2
 70
     1
102
RTVSPropertyOp3
 70
     1
102
RTVSPropertyOp4
 70
     1
102
RTVSPropertyOp5
 70
     1
102
RTVSPropertyOp6
 70
     1
102
RTVSPropertyOp7
 70
     1
102
RTVSPropertyOp8
 70
     1
102
RTVSPropertyOp9
 70
     1
102
RTVSPropertyOp10
 70
     1
102
RTVSPropertyOp11
 70
     1
102
RTVSPropertyOp12
 70
     1
102
RTVSPropertyOp13
 70
     1
102
RTVSPropertyOp14
 70
     1
102
RTVSPropertyOp15
 70
     1
102
RTVSPropertyOp16
 70
     1
102
RTVSPropertyOp17
 70
     1
102
RTVSPropertyOp18
 70
     1
102
RTVSPropertyOp19
 70
     1
102
RTVSPropertyOp20
 70
     1
102
RTVSPropertyOp21
 70
     1
102
RTVSPropertyOp22
 70
     1
102
RTVSPropertyOp23
 70
     1
102
RTVSPropertyOp24
 70
     1
102
RTVSPropertyOp25
 70
     1
102
RTVSPropertyOp26
 70
     1
102
RTVSPropertyOp27
 70
     1
102
RTVSPropertyOp28
 70
     1
102
RTVSPropertyOp29
 70
     1
102
RTVSPropertyOp30
 70
     1
102
RTVSPropertyOp31
 70
     1
102
RTVSPropertyOp32
 70
     1
102
RTVSPropertyOp33
 70
     1
102
RTVSPropertyOp34
 70
     1
102
RTVSPropertyOp35
 70
     1
102
RTVSPropertyOp36
 70
     1
102
RTVSPropertyOp37
 70
     1
102
RTVSPropertyOp38
 70
     1
102
RTVSPropertyOp39
 70
     1
102
RTVSPropertyOp40
 70
     1
102
RTVSPropertyOp41
 70
     1
102
RTVSPropertyOp42
 70
     1
102
RTVSPropertyOp43
 70
     1
102
RTVSPropertyOp44
 70
     1
102
RTVSPropertyOp45
 70
     1
102
RTVSPropertyOp46
 70
     1
102
RTVSPropertyOp47
 70
     1
102
RTVSPropertyOp48
 70
     1
102
RTVSPropertyOp49
 70
     1
102
RTVSPropertyOp50
 70
     1
102
RTVSPropertyOp51
 70
     0
102
RTVSPropertyOp52
 70
     0
102
RTVSPropertyOp53
 70
     1
102
RTVSPropertyOp54
 70
     1
102
RTVSPropertyOp55
 70
     1
102
RTVSPropertyOp56
 70
     1
102
RTVSPropertyOp57
 70
     1
102
RTVSPost2010Prop28
280
     0
102
RTVSPost2010PropOp28
 70
     1
102
RTVSPost2010Prop29
280
     1
102
RTVSPost2010PropOp29
 70
     1
102
RTVSPost2010Prop30
280
     1
102
RTVSPost2010PropOp30
 70
     1
102
RTVSPost2010Prop31
280
     0
102
RTVSPost2010PropOp31
 70
     1
102
RTVSPost2010Prop32
280
     0
102
RTVSPost2010PropOp32
 70
     1
102
RTVSPost2010Prop33
280
     0
102
RTVSPost2010PropOp33
 70
     1
102
RTVSPost2010Prop34
280
     0
102
RTVSPost2010PropOp34
 70
     1
102
RTVSPost2010Prop35
280
     0
102
RTVSPost2010PropOp35
 70
     1
102
RTVSPost2010Prop36
280
     0
102
RTVSPost2010PropOp36
 70
     1
102
RTVSPost2010Prop37
 90
       50
102
RTVSPost2010PropOp37
 70
     1
102
RTVSPost2010Prop38
140
0.0
102
RTVSPost2010PropOp38
 70
     1
102
RTVSPost2010Prop39
140
1.0
102
RTVSPost2010PropOp39
 70
     1
102
RTVSPost2010Prop40
 90
        0
102
RTVSPost2010PropOp40
 70
     1
102
RTVSPost2010Prop41ColorIndex
 90
       18
102
RTVSPost2010Prop41ColorRGB
 90
        0
102
RTVSPost2010PropOp41
 70
     1
102
RTVSPost2010Prop42
 90
       50
102
RTVSPost2010PropOp42
 70
     1
102
RTVSPost2010Prop43
 90
        3
102
RTVSPost2010PropOp43
 70
     1
102
RTVSPost2010Prop44ColorIndex
 90
        5
102
RTVSPost2010Prop44ColorRGB
 90
      255
102
RTVSPost2010PropOp44
 70
     1
102
RTVSPost2010Prop45
280
     0
102
RTVSPost2010PropOp45
 70
     1
102
RTVSPost2010Prop46
 90
       50
102
RTVSPost2010PropOp46
 70
     1
102
RTVSPost2010Prop47
 90
       50
102
RTVSPost2010PropOp47
 70
     1
102
RTVSPost2010Prop48
 90
       50
102
RTVSPost2010PropOp48
 70
     1
102
RTVSPost2010Prop49
280
     0
102
RTVSPost2010PropOp49
 70
     1
102
RTVSPost2010Prop50
 90
       50
102
RTVSPost2010PropOp50
 70
     1
102
RTVSPost2010Prop51ColorIndex
 90
      256
102
RTVSPost2010Prop51ColorRGB
 90
-16777216
102
RTVSPost2010PropOp51
 70
     0
102
RTVSPost2010Prop52
140
1.0
102
RTVSPost2010PropOp52
 70
     0
102
RTVSPost2010Prop53
 90
        2
102
RTVSPost2010PropOp53
 70
     1
102
RTVSPost2010Prop54
  1
strokes_ogs.tif
102
RTVSPost2010PropOp54
 70
     1
102
RTVSPost2010Prop55
280
     0
102
RTVSPost2010PropOp55
 70
     1
102
RTVSPost2010Prop56
140
1.0
102
RTVSPost2010PropOp56
 70
     1
102
RTVSPost2010Prop57
140
1.0
102
RTVSPost2010PropOp57
 70
     1
  0
XRECORD
  5
171
102
{ACAD_REACTORS
330
170
102
}
330
170
100
AcDbXrecord
280
     1
102
RTVSPropertyOp0
 70
     1
102
RTVSPropertyOp1
 70
     1
102
RTVSPropertyOp2
 70
     1
102
RTVSPropertyOp3
 70
     1
102
RTVSPropertyOp4
 70
     1
102
RTVSPropertyOp5
 70
     1
102
RTVSPropertyOp6
 70
     1
102
RTVSPropertyOp7
 70
     1
102
RTVSPropertyOp8
 70
     1
102
RTVSPropertyOp9
 70
     1
102
RTVSPropertyOp10
 70
     1
102
RTVSPropertyOp11
 70
     1
102
RTVSPropertyOp12
 70
     1
102
RTVSPropertyOp13
 70
     1
102
RTVSPropertyOp14
 70
     1
102
RTVSPropertyOp15
 70
     1
102
RTVSPropertyOp16
 70
     1
102
RTVSPropertyOp17
 70
     1
102
RTVSPropertyOp18
 70
     1
102
RTVSPropertyOp19
 70
     1
102
RTVSPropertyOp20
 70
     1
102
RTVSPropertyOp21
 70
     1
102
RTVSPropertyOp22
 70
     1
102
RTVSPropertyOp23
 70
     1
102
RTVSPropertyOp24
 70
     1
102
RTVSPropertyOp25
 70
     1
102
RTVSPropertyOp26
 70
     1
102
RTVSPropertyOp27
 70
     1
102
RTVSPropertyOp28
 70
     1
102
RTVSPropertyOp29
 70
     1
102
RTVSPropertyOp30
 70
     1
102
RTVSPropertyOp31
 70
     1
102
RTVSPropertyOp32
 70
     1
102
RTVSPropertyOp33
 70
     1
102
RTVSPropertyOp34
 70
     1
102
RTVSPropertyOp35
 70
     1
102
RTVSPropertyOp36
 70
     1
102
RTVSPropertyOp37
 70
     1
102
RTVSPropertyOp38
 70
     1
102
RTVSPropertyOp39
 70
     1
102
RTVSPropertyOp40
 70
     1
102
RTVSPropertyOp41
 70
     1
102
RTVSPropertyOp42
 70
     1
102
RTVSPropertyOp43
 70
     1
102
RTVSPropertyOp44
 70
     1
102
RTVSPropertyOp45
 70
     1
102
RTVSPropertyOp46
 70
     1
102
RTVSPropertyOp47
 70
     1
102
RTVSPropertyOp48
 70
     1
102
RTVSPropertyOp49
 70
     1
102
RTVSPropertyOp50
 70
     1
102
RTVSPropertyOp51
 70
     0
102
RTVSPropertyOp52
 70
     0
102
RTVSPropertyOp53
 70
     1
102
RTVSPropertyOp54
 70
     1
102
RTVSPropertyOp55
 70
     1
102
RTVSPropertyOp56
 70
     1
102
RTVSPropertyOp57
 70
     1
102
RTVSPost2010Prop28
280
     0
102
RTVSPost2010PropOp28
 70
     1
102
RTVSPost2010Prop29
280
     1
102
RTVSPost2010PropOp29
 70
     1
102
RTVSPost2010Prop30
280
     1
102
RTVSPost2010PropOp30
 70
     1
102
RTVSPost2010Prop31
280
     0
102
RTVSPost2010PropOp31
 70
     1
102
RTVSPost2010Prop32
280
     0
102
RTVSPost2010PropOp32
 70
     1
102
RTVSPost2010Prop33
280
     0
102
RTVSPost2010PropOp33
 70
     1
102
RTVSPost2010Prop34
280
     0
102
RTVSPost2010PropOp34
 70
     1
102
RTVSPost2010Prop35
280
     0
102
RTVSPost2010PropOp35
 70
     1
102
RTVSPost2010Prop36
280
     0
102
RTVSPost2010PropOp36
 70
     1
102
RTVSPost2010Prop37
 90
       50
102
RTVSPost2010PropOp37
 70
     1
102
RTVSPost2010Prop38
140
0.0
102
RTVSPost2010PropOp38
 70
     1
102
RTVSPost2010Prop39
140
1.0
102
RTVSPost2010PropOp39
 70
     1
102
RTVSPost2010Prop40
 90
        0
102
RTVSPost2010PropOp40
 70
     1
102
RTVSPost2010Prop41ColorIndex
 90
       18
102
RTVSPost2010Prop41ColorRGB
 90
        0
102
RTVSPost2010PropOp41
 70
     1
102
RTVSPost2010Prop42
 90
       50
102
RTVSPost2010PropOp42
 70
     1
102
RTVSPost2010Prop43
 90
        3
102
RTVSPost2010PropOp43
 70
     1
102
RTVSPost2010Prop44ColorIndex
 90
        5
102
RTVSPost2010Prop44ColorRGB
 90
      255
102
RTVSPost2010PropOp44
 70
     1
102
RTVSPost2010Prop45
280
     0
102
RTVSPost2010PropOp45
 70
     1
102
RTVSPost2010Prop46
 90
       50
102
RTVSPost2010PropOp46
 70
     1
102
RTVSPost2010Prop47
 90
       50
102
RTVSPost2010PropOp47
 70
     1
102
RTVSPost2010Prop48
 90
       50
102
RTVSPost2010PropOp48
 70
     1
102
RTVSPost2010Prop49
280
     0
102
RTVSPost2010PropOp49
 70
     1
102
RTVSPost2010Prop50
 90
       50
102
RTVSPost2010PropOp50
 70
     1
102
RTVSPost2010Prop51ColorIndex
 90
      256
102
RTVSPost2010Prop51ColorRGB
 90
-16777216
102
RTVSPost2010PropOp51
 70
     0
102
RTVSPost2010Prop52
140
1.0
102
RTVSPost2010PropOp52
 70
     0
102
RTVSPost2010Prop53
 90
        2
102
RTVSPost2010PropOp53
 70
     1
102
RTVSPost2010Prop54
  1
strokes_ogs.tif
102
RTVSPost2010PropOp54
 70
     1
102
RTVSPost2010Prop55
280
     0
102
RTVSPost2010PropOp55
 70
     1
102
RTVSPost2010Prop56
140
1.0
102
RTVSPost2010PropOp56
 70
     1
102
RTVSPost2010Prop57
140
1.0
102
RTVSPost2010PropOp57
 70
     1
  0
XRECORD
  5
16F
102
{ACAD_REACTORS
330
16E
102
}
330
16E
100
AcDbXrecord
280
     1
102
RTVSPropertyOp0
 70
     1
102
RTVSPropertyOp1
 70
     1
102
RTVSPropertyOp2
 70
     1
102
RTVSPropertyOp3
 70
     1
102
RTVSPropertyOp4
 70
     1
102
RTVSPropertyOp5
 70
     1
102
RTVSPropertyOp6
 70
     1
102
RTVSPropertyOp7
 70
     1
102
RTVSPropertyOp8
 70
     1
102
RTVSPropertyOp9
 70
     1
102
RTVSPropertyOp10
 70
     1
102
RTVSPropertyOp11
 70
     1
102
RTVSPropertyOp12
 70
     1
102
RTVSPropertyOp13
 70
     1
102
RTVSPropertyOp14
 70
     1
102
RTVSPropertyOp15
 70
     1
102
RTVSPropertyOp16
 70
     1
102
RTVSPropertyOp17
 70
     1
102
RTVSPropertyOp18
 70
     1
102
RTVSPropertyOp19
 70
     1
102
RTVSPropertyOp20
 70
     1
102
RTVSPropertyOp21
 70
     1
102
RTVSPropertyOp22
 70
     1
102
RTVSPropertyOp23
 70
     1
102
RTVSPropertyOp24
 70
     1
102
RTVSPropertyOp25
 70
     1
102
RTVSPropertyOp26
 70
     1
102
RTVSPropertyOp27
 70
     1
102
RTVSPropertyOp28
 70
     1
102
RTVSPropertyOp29
 70
     1
102
RTVSPropertyOp30
 70
     1
102
RTVSPropertyOp31
 70
     1
102
RTVSPropertyOp32
 70
     1
102
RTVSPropertyOp33
 70
     1
102
RTVSPropertyOp34
 70
     1
102
RTVSPropertyOp35
 70
     1
102
RTVSPropertyOp36
 70
     1
102
RTVSPropertyOp37
 70
     1
102
RTVSPropertyOp38
 70
     1
102
RTVSPropertyOp39
 70
     1
102
RTVSPropertyOp40
 70
     1
102
RTVSPropertyOp41
 70
     1
102
RTVSPropertyOp42
 70
     1
102
RTVSPropertyOp43
 70
     1
102
RTVSPropertyOp44
 70
     1
102
RTVSPropertyOp45
 70
     1
102
RTVSPropertyOp46
 70
     1
102
RTVSPropertyOp47
 70
     1
102
RTVSPropertyOp48
 70
     1
102
RTVSPropertyOp49
 70
     1
102
RTVSPropertyOp50
 70
     1
102
RTVSPropertyOp51
 70
     0
102
RTVSPropertyOp52
 70
     0
102
RTVSPropertyOp53
 70
     1
102
RTVSPropertyOp54
 70
     1
102
RTVSPropertyOp55
 70
     1
102
RTVSPropertyOp56
 70
     1
102
RTVSPropertyOp57
 70
     1
102
RTVSPost2010Prop28
280
     0
102
RTVSPost2010PropOp28
 70
     1
102
RTVSPost2010Prop29
280
     1
102
RTVSPost2010PropOp29
 70
     1
102
RTVSPost2010Prop30
280
     1
102
RTVSPost2010PropOp30
 70
     1
102
RTVSPost2010Prop31
280
     0
102
RTVSPost2010PropOp31
 70
     1
102
RTVSPost2010Prop32
280
     0
102
RTVSPost2010PropOp32
 70
     1
102
RTVSPost2010Prop33
280
     0
102
RTVSPost2010PropOp33
 70
     1
102
RTVSPost2010Prop34
280
     0
102
RTVSPost2010PropOp34
 70
     1
102
RTVSPost2010Prop35
280
     0
102
RTVSPost2010PropOp35
 70
     1
102
RTVSPost2010Prop36
280
     0
102
RTVSPost2010PropOp36
 70
     1
102
RTVSPost2010Prop37
 90
       50
102
RTVSPost2010PropOp37
 70
     1
102
RTVSPost2010Prop38
140
0.0
102
RTVSPost2010PropOp38
 70
     1
102
RTVSPost2010Prop39
140
1.0
102
RTVSPost2010PropOp39
 70
     1
102
RTVSPost2010Prop40
 90
        0
102
RTVSPost2010PropOp40
 70
     1
102
RTVSPost2010Prop41ColorIndex
 90
       18
102
RTVSPost2010Prop41ColorRGB
 90
        0
102
RTVSPost2010PropOp41
 70
     1
102
RTVSPost2010Prop42
 90
       50
102
RTVSPost2010PropOp42
 70
     1
102
RTVSPost2010Prop43
 90
        3
102
RTVSPost2010PropOp43
 70
     1
102
RTVSPost2010Prop44ColorIndex
 90
        5
102
RTVSPost2010Prop44ColorRGB
 90
      255
102
RTVSPost2010PropOp44
 70
     1
102
RTVSPost2010Prop45
280
     0
102
RTVSPost2010PropOp45
 70
     1
102
RTVSPost2010Prop46
 90
       50
102
RTVSPost2010PropOp46
 70
     1
102
RTVSPost2010Prop47
 90
       50
102
RTVSPost2010PropOp47
 70
     1
102
RTVSPost2010Prop48
 90
       50
102
RTVSPost2010PropOp48
 70
     1
102
RTVSPost2010Prop49
280
     0
102
RTVSPost2010PropOp49
 70
     1
102
RTVSPost2010Prop50
 90
       50
102
RTVSPost2010PropOp50
 70
     1
102
RTVSPost2010Prop51ColorIndex
 90
      256
102
RTVSPost2010Prop51ColorRGB
 90
-16777216
102
RTVSPost2010PropOp51
 70
     0
102
RTVSPost2010Prop52
140
1.0
102
RTVSPost2010PropOp52
 70
     0
102
RTVSPost2010Prop53
 90
        2
102
RTVSPost2010PropOp53
 70
     1
102
RTVSPost2010Prop54
  1
strokes_ogs.tif
102
RTVSPost2010PropOp54
 70
     1
102
RTVSPost2010Prop55
280
     0
102
RTVSPost2010PropOp55
 70
     1
102
RTVSPost2010Prop56
140
1.0
102
RTVSPost2010PropOp56
 70
     1
102
RTVSPost2010Prop57
140
1.0
102
RTVSPost2010PropOp57
 70
     1
  0
XRECORD
  5
169
102
{ACAD_REACTORS
330
168
102
}
330
168
100
AcDbXrecord
280
     1
102
RTVSPropertyOp0
 70
     1
102
RTVSPropertyOp1
 70
     1
102
RTVSPropertyOp2
 70
     1
102
RTVSPropertyOp3
 70
     1
102
RTVSPropertyOp4
 70
     1
102
RTVSPropertyOp5
 70
     1
102
RTVSPropertyOp6
 70
     1
102
RTVSPropertyOp7
 70
     1
102
RTVSPropertyOp8
 70
     1
102
RTVSPropertyOp9
 70
     1
102
RTVSPropertyOp10
 70
     1
102
RTVSPropertyOp11
 70
     1
102
RTVSPropertyOp12
 70
     1
102
RTVSPropertyOp13
 70
     1
102
RTVSPropertyOp14
 70
     1
102
RTVSPropertyOp15
 70
     1
102
RTVSPropertyOp16
 70
     1
102
RTVSPropertyOp17
 70
     1
102
RTVSPropertyOp18
 70
     1
102
RTVSPropertyOp19
 70
     1
102
RTVSPropertyOp20
 70
     1
102
RTVSPropertyOp21
 70
     1
102
RTVSPropertyOp22
 70
     1
102
RTVSPropertyOp23
 70
     1
102
RTVSPropertyOp24
 70
     1
102
RTVSPropertyOp25
 70
     1
102
RTVSPropertyOp26
 70
     1
102
RTVSPropertyOp27
 70
     1
102
RTVSPropertyOp28
 70
     1
102
RTVSPropertyOp29
 70
     1
102
RTVSPropertyOp30
 70
     1
102
RTVSPropertyOp31
 70
     1
102
RTVSPropertyOp32
 70
     1
102
RTVSPropertyOp33
 70
     1
102
RTVSPropertyOp34
 70
     1
102
RTVSPropertyOp35
 70
     1
102
RTVSPropertyOp36
 70
     1
102
RTVSPropertyOp37
 70
     1
102
RTVSPropertyOp38
 70
     1
102
RTVSPropertyOp39
 70
     1
102
RTVSPropertyOp40
 70
     1
102
RTVSPropertyOp41
 70
     1
102
RTVSPropertyOp42
 70
     1
102
RTVSPropertyOp43
 70
     1
102
RTVSPropertyOp44
 70
     1
102
RTVSPropertyOp45
 70
     1
102
RTVSPropertyOp46
 70
     1
102
RTVSPropertyOp47
 70
     1
102
RTVSPropertyOp48
 70
     1
102
RTVSPropertyOp49
 70
     1
102
RTVSPropertyOp50
 70
     1
102
RTVSPropertyOp51
 70
     0
102
RTVSPropertyOp52
 70
     0
102
RTVSPropertyOp53
 70
     1
102
RTVSPropertyOp54
 70
     1
102
RTVSPropertyOp55
 70
     1
102
RTVSPropertyOp56
 70
     1
102
RTVSPropertyOp57
 70
     1
102
RTVSPost2010Prop28
280
     0
102
RTVSPost2010PropOp28
 70
     1
102
RTVSPost2010Prop29
280
     1
102
RTVSPost2010PropOp29
 70
     1
102
RTVSPost2010Prop30
280
     1
102
RTVSPost2010PropOp30
 70
     1
102
RTVSPost2010Prop31
280
     0
102
RTVSPost2010PropOp31
 70
     1
102
RTVSPost2010Prop32
280
     0
102
RTVSPost2010PropOp32
 70
     1
102
RTVSPost2010Prop33
280
     0
102
RTVSPost2010PropOp33
 70
     1
102
RTVSPost2010Prop34
280
     0
102
RTVSPost2010PropOp34
 70
     1
102
RTVSPost2010Prop35
280
     0
102
RTVSPost2010PropOp35
 70
     1
102
RTVSPost2010Prop36
280
     0
102
RTVSPost2010PropOp36
 70
     1
102
RTVSPost2010Prop37
 90
       50
102
RTVSPost2010PropOp37
 70
     1
102
RTVSPost2010Prop38
140
0.0
102
RTVSPost2010PropOp38
 70
     1
102
RTVSPost2010Prop39
140
1.0
102
RTVSPost2010PropOp39
 70
     1
102
RTVSPost2010Prop40
 90
        0
102
RTVSPost2010PropOp40
 70
     1
102
RTVSPost2010Prop41ColorIndex
 90
       18
102
RTVSPost2010Prop41ColorRGB
 90
        0
102
RTVSPost2010PropOp41
 70
     1
102
RTVSPost2010Prop42
 90
       50
102
RTVSPost2010PropOp42
 70
     1
102
RTVSPost2010Prop43
 90
        3
102
RTVSPost2010PropOp43
 70
     1
102
RTVSPost2010Prop44ColorIndex
 90
        5
102
RTVSPost2010Prop44ColorRGB
 90
      255
102
RTVSPost2010PropOp44
 70
     1
102
RTVSPost2010Prop45
280
     0
102
RTVSPost2010PropOp45
 70
     1
102
RTVSPost2010Prop46
 90
       50
102
RTVSPost2010PropOp46
 70
     1
102
RTVSPost2010Prop47
 90
       50
102
RTVSPost2010PropOp47
 70
     1
102
RTVSPost2010Prop48
 90
       50
102
RTVSPost2010PropOp48
 70
     1
102
RTVSPost2010Prop49
280
     0
102
RTVSPost2010PropOp49
 70
     1
102
RTVSPost2010Prop50
 90
       50
102
RTVSPost2010PropOp50
 70
     1
102
RTVSPost2010Prop51ColorIndex
 90
      256
102
RTVSPost2010Prop51ColorRGB
 90
-16777216
102
RTVSPost2010PropOp51
 70
     0
102
RTVSPost2010Prop52
140
1.0
102
RTVSPost2010PropOp52
 70
     0
102
RTVSPost2010Prop53
 90
        2
102
RTVSPost2010PropOp53
 70
     1
102
RTVSPost2010Prop54
  1
strokes_ogs.tif
102
RTVSPost2010PropOp54
 70
     1
102
RTVSPost2010Prop55
280
     0
102
RTVSPost2010PropOp55
 70
     1
102
RTVSPost2010Prop56
140
1.0
102
RTVSPost2010PropOp56
 70
     1
102
RTVSPost2010Prop57
140
1.0
102
RTVSPost2010PropOp57
 70
     1
  0
XRECORD
  5
16B
102
{ACAD_REACTORS
330
16A
102
}
330
16A
100
AcDbXrecord
280
     1
102
RTVSPropertyOp0
 70
     1
102
RTVSPropertyOp1
 70
     1
102
RTVSPropertyOp2
 70
     1
102
RTVSPropertyOp3
 70
     1
102
RTVSPropertyOp4
 70
     1
102
RTVSPropertyOp5
 70
     1
102
RTVSPropertyOp6
 70
     1
102
RTVSPropertyOp7
 70
     1
102
RTVSPropertyOp8
 70
     1
102
RTVSPropertyOp9
 70
     1
102
RTVSPropertyOp10
 70
     1
102
RTVSPropertyOp11
 70
     1
102
RTVSPropertyOp12
 70
     1
102
RTVSPropertyOp13
 70
     1
102
RTVSPropertyOp14
 70
     1
102
RTVSPropertyOp15
 70
     1
102
RTVSPropertyOp16
 70
     1
102
RTVSPropertyOp17
 70
     1
102
RTVSPropertyOp18
 70
     1
102
RTVSPropertyOp19
 70
     1
102
RTVSPropertyOp20
 70
     1
102
RTVSPropertyOp21
 70
     1
102
RTVSPropertyOp22
 70
     1
102
RTVSPropertyOp23
 70
     1
102
RTVSPropertyOp24
 70
     1
102
RTVSPropertyOp25
 70
     1
102
RTVSPropertyOp26
 70
     1
102
RTVSPropertyOp27
 70
     1
102
RTVSPropertyOp28
 70
     1
102
RTVSPropertyOp29
 70
     1
102
RTVSPropertyOp30
 70
     1
102
RTVSPropertyOp31
 70
     1
102
RTVSPropertyOp32
 70
     1
102
RTVSPropertyOp33
 70
     1
102
RTVSPropertyOp34
 70
     1
102
RTVSPropertyOp35
 70
     1
102
RTVSPropertyOp36
 70
     1
102
RTVSPropertyOp37
 70
     1
102
RTVSPropertyOp38
 70
     1
102
RTVSPropertyOp39
 70
     1
102
RTVSPropertyOp40
 70
     1
102
RTVSPropertyOp41
 70
     1
102
RTVSPropertyOp42
 70
     1
102
RTVSPropertyOp43
 70
     1
102
RTVSPropertyOp44
 70
     1
102
RTVSPropertyOp45
 70
     1
102
RTVSPropertyOp46
 70
     1
102
RTVSPropertyOp47
 70
     1
102
RTVSPropertyOp48
 70
     1
102
RTVSPropertyOp49
 70
     1
102
RTVSPropertyOp50
 70
     1
102
RTVSPropertyOp51
 70
     0
102
RTVSPropertyOp52
 70
     0
102
RTVSPropertyOp53
 70
     1
102
RTVSPropertyOp54
 70
     1
102
RTVSPropertyOp55
 70
     1
102
RTVSPropertyOp56
 70
     1
102
RTVSPropertyOp57
 70
     1
102
RTVSPost2010Prop28
280
     0
102
RTVSPost2010PropOp28
 70
     1
102
RTVSPost2010Prop29
280
     1
102
RTVSPost2010PropOp29
 70
     1
102
RTVSPost2010Prop30
280
     1
102
RTVSPost2010PropOp30
 70
     1
102
RTVSPost2010Prop31
280
     0
102
RTVSPost2010PropOp31
 70
     1
102
RTVSPost2010Prop32
280
     0
102
RTVSPost2010PropOp32
 70
     1
102
RTVSPost2010Prop33
280
     0
102
RTVSPost2010PropOp33
 70
     1
102
RTVSPost2010Prop34
280
     0
102
RTVSPost2010PropOp34
 70
     1
102
RTVSPost2010Prop35
280
     0
102
RTVSPost2010PropOp35
 70
     1
102
RTVSPost2010Prop36
280
     0
102
RTVSPost2010PropOp36
 70
     1
102
RTVSPost2010Prop37
 90
       50
102
RTVSPost2010PropOp37
 70
     1
102
RTVSPost2010Prop38
140
0.0
102
RTVSPost2010PropOp38
 70
     1
102
RTVSPost2010Prop39
140
1.0
102
RTVSPost2010PropOp39
 70
     1
102
RTVSPost2010Prop40
 90
        0
102
RTVSPost2010PropOp40
 70
     1
102
RTVSPost2010Prop41ColorIndex
 90
       18
102
RTVSPost2010Prop41ColorRGB
 90
        0
102
RTVSPost2010PropOp41
 70
     1
102
RTVSPost2010Prop42
 90
       50
102
RTVSPost2010PropOp42
 70
     1
102
RTVSPost2010Prop43
 90
        3
102
RTVSPost2010PropOp43
 70
     1
102
RTVSPost2010Prop44ColorIndex
 90
        5
102
RTVSPost2010Prop44ColorRGB
 90
      255
102
RTVSPost2010PropOp44
 70
     1
102
RTVSPost2010Prop45
280
     0
102
RTVSPost2010PropOp45
 70
     1
102
RTVSPost2010Prop46
 90
       50
102
RTVSPost2010PropOp46
 70
     1
102
RTVSPost2010Prop47
 90
       50
102
RTVSPost2010PropOp47
 70
     1
102
RTVSPost2010Prop48
 90
       50
102
RTVSPost2010PropOp48
 70
     1
102
RTVSPost2010Prop49
280
     0
102
RTVSPost2010PropOp49
 70
     1
102
RTVSPost2010Prop50
 90
       50
102
RTVSPost2010PropOp50
 70
     1
102
RTVSPost2010Prop51ColorIndex
 90
      256
102
RTVSPost2010Prop51ColorRGB
 90
-16777216
102
RTVSPost2010PropOp51
 70
     0
102
RTVSPost2010Prop52
140
1.0
102
RTVSPost2010PropOp52
 70
     0
102
RTVSPost2010Prop53
 90
        2
102
RTVSPost2010PropOp53
 70
     1
102
RTVSPost2010Prop54
  1
strokes_ogs.tif
102
RTVSPost2010PropOp54
 70
     1
102
RTVSPost2010Prop55
280
     0
102
RTVSPost2010PropOp55
 70
     1
102
RTVSPost2010Prop56
140
1.0
102
RTVSPost2010PropOp56
 70
     1
102
RTVSPost2010Prop57
140
1.0
102
RTVSPost2010PropOp57
 70
     1
  0
XRECORD
  5
15B
102
{ACAD_REACTORS
330
15A
102
}
330
15A
100
AcDbXrecord
280
     1
102
RTVSPropertyOp0
 70
     1
102
RTVSPropertyOp1
 70
     1
102
RTVSPropertyOp2
 70
     1
102
RTVSPropertyOp3
 70
     1
102
RTVSPropertyOp4
 70
     1
102
RTVSPropertyOp5
 70
     1
102
RTVSPropertyOp6
 70
     1
102
RTVSPropertyOp7
 70
     1
102
RTVSPropertyOp8
 70
     1
102
RTVSPropertyOp9
 70
     1
102
RTVSPropertyOp10
 70
     1
102
RTVSPropertyOp11
 70
     1
102
RTVSPropertyOp12
 70
     1
102
RTVSPropertyOp13
 70
     1
102
RTVSPropertyOp14
 70
     1
102
RTVSPropertyOp15
 70
     1
102
RTVSPropertyOp16
 70
     1
102
RTVSPropertyOp17
 70
     1
102
RTVSPropertyOp18
 70
     1
102
RTVSPropertyOp19
 70
     1
102
RTVSPropertyOp20
 70
     1
102
RTVSPropertyOp21
 70
     1
102
RTVSPropertyOp22
 70
     1
102
RTVSPropertyOp23
 70
     1
102
RTVSPropertyOp24
 70
     1
102
RTVSPropertyOp25
 70
     1
102
RTVSPropertyOp26
 70
     1
102
RTVSPropertyOp27
 70
     1
102
RTVSPropertyOp28
 70
     1
102
RTVSPropertyOp29
 70
     1
102
RTVSPropertyOp30
 70
     1
102
RTVSPropertyOp31
 70
     1
102
RTVSPropertyOp32
 70
     1
102
RTVSPropertyOp33
 70
     1
102
RTVSPropertyOp34
 70
     1
102
RTVSPropertyOp35
 70
     1
102
RTVSPropertyOp36
 70
     1
102
RTVSPropertyOp37
 70
     1
102
RTVSPropertyOp38
 70
     1
102
RTVSPropertyOp39
 70
     1
102
RTVSPropertyOp40
 70
     1
102
RTVSPropertyOp41
 70
     1
102
RTVSPropertyOp42
 70
     1
102
RTVSPropertyOp43
 70
     1
102
RTVSPropertyOp44
 70
     1
102
RTVSPropertyOp45
 70
     1
102
RTVSPropertyOp46
 70
     1
102
RTVSPropertyOp47
 70
     1
102
RTVSPropertyOp48
 70
     1
102
RTVSPropertyOp49
 70
     1
102
RTVSPropertyOp50
 70
     1
102
RTVSPropertyOp51
 70
     0
102
RTVSPropertyOp52
 70
     0
102
RTVSPropertyOp53
 70
     1
102
RTVSPropertyOp54
 70
     1
102
RTVSPropertyOp55
 70
     1
102
RTVSPropertyOp56
 70
     1
102
RTVSPropertyOp57
 70
     1
102
RTVSPost2010Prop28
280
     0
102
RTVSPost2010PropOp28
 70
     1
102
RTVSPost2010Prop29
280
     1
102
RTVSPost2010PropOp29
 70
     1
102
RTVSPost2010Prop30
280
     1
102
RTVSPost2010PropOp30
 70
     1
102
RTVSPost2010Prop31
280
     0
102
RTVSPost2010PropOp31
 70
     1
102
RTVSPost2010Prop32
280
     0
102
RTVSPost2010PropOp32
 70
     1
102
RTVSPost2010Prop33
280
     0
102
RTVSPost2010PropOp33
 70
     1
102
RTVSPost2010Prop34
280
     0
102
RTVSPost2010PropOp34
 70
     1
102
RTVSPost2010Prop35
280
     0
102
RTVSPost2010PropOp35
 70
     1
102
RTVSPost2010Prop36
280
     0
102
RTVSPost2010PropOp36
 70
     1
102
RTVSPost2010Prop37
 90
       50
102
RTVSPost2010PropOp37
 70
     1
102
RTVSPost2010Prop38
140
0.0
102
RTVSPost2010PropOp38
 70
     1
102
RTVSPost2010Prop39
140
1.0
102
RTVSPost2010PropOp39
 70
     1
102
RTVSPost2010Prop40
 90
        0
102
RTVSPost2010PropOp40
 70
     1
102
RTVSPost2010Prop41ColorIndex
 90
       18
102
RTVSPost2010Prop41ColorRGB
 90
        0
102
RTVSPost2010PropOp41
 70
     1
102
RTVSPost2010Prop42
 90
       50
102
RTVSPost2010PropOp42
 70
     1
102
RTVSPost2010Prop43
 90
        3
102
RTVSPost2010PropOp43
 70
     1
102
RTVSPost2010Prop44ColorIndex
 90
        5
102
RTVSPost2010Prop44ColorRGB
 90
      255
102
RTVSPost2010PropOp44
 70
     1
102
RTVSPost2010Prop45
280
     0
102
RTVSPost2010PropOp45
 70
     1
102
RTVSPost2010Prop46
 90
       50
102
RTVSPost2010PropOp46
 70
     1
102
RTVSPost2010Prop47
 90
       50
102
RTVSPost2010PropOp47
 70
     1
102
RTVSPost2010Prop48
 90
       50
102
RTVSPost2010PropOp48
 70
     1
102
RTVSPost2010Prop49
280
     0
102
RTVSPost2010PropOp49
 70
     1
102
RTVSPost2010Prop50
 90
       50
102
RTVSPost2010PropOp50
 70
     1
102
RTVSPost2010Prop51ColorIndex
 90
      256
102
RTVSPost2010Prop51ColorRGB
 90
-16777216
102
RTVSPost2010PropOp51
 70
     0
102
RTVSPost2010Prop52
140
1.0
102
RTVSPost2010PropOp52
 70
     0
102
RTVSPost2010Prop53
 90
        2
102
RTVSPost2010PropOp53
 70
     1
102
RTVSPost2010Prop54
  1
strokes_ogs.tif
102
RTVSPost2010PropOp54
 70
     1
102
RTVSPost2010Prop55
280
     0
102
RTVSPost2010PropOp55
 70
     1
102
RTVSPost2010Prop56
140
1.0
102
RTVSPost2010PropOp56
 70
     1
102
RTVSPost2010Prop57
140
1.0
102
RTVSPost2010PropOp57
 70
     1
  0
XRECORD
  5
14D
102
{ACAD_REACTORS
330
14C
102
}
330
14C
100
AcDbXrecord
280
     1
102
RTVSPropertyOp0
 70
     1
102
RTVSPropertyOp1
 70
     1
102
RTVSPropertyOp2
 70
     1
102
RTVSPropertyOp3
 70
     1
102
RTVSPropertyOp4
 70
     1
102
RTVSPropertyOp5
 70
     1
102
RTVSPropertyOp6
 70
     1
102
RTVSPropertyOp7
 70
     1
102
RTVSPropertyOp8
 70
     1
102
RTVSPropertyOp9
 70
     1
102
RTVSPropertyOp10
 70
     1
102
RTVSPropertyOp11
 70
     1
102
RTVSPropertyOp12
 70
     1
102
RTVSPropertyOp13
 70
     1
102
RTVSPropertyOp14
 70
     1
102
RTVSPropertyOp15
 70
     1
102
RTVSPropertyOp16
 70
     1
102
RTVSPropertyOp17
 70
     1
102
RTVSPropertyOp18
 70
     1
102
RTVSPropertyOp19
 70
     1
102
RTVSPropertyOp20
 70
     1
102
RTVSPropertyOp21
 70
     1
102
RTVSPropertyOp22
 70
     1
102
RTVSPropertyOp23
 70
     1
102
RTVSPropertyOp24
 70
     1
102
RTVSPropertyOp25
 70
     1
102
RTVSPropertyOp26
 70
     1
102
RTVSPropertyOp27
 70
     1
102
RTVSPropertyOp28
 70
     1
102
RTVSPropertyOp29
 70
     1
102
RTVSPropertyOp30
 70
     1
102
RTVSPropertyOp31
 70
     1
102
RTVSPropertyOp32
 70
     1
102
RTVSPropertyOp33
 70
     1
102
RTVSPropertyOp34
 70
     1
102
RTVSPropertyOp35
 70
     1
102
RTVSPropertyOp36
 70
     1
102
RTVSPropertyOp37
 70
     1
102
RTVSPropertyOp38
 70
     1
102
RTVSPropertyOp39
 70
     1
102
RTVSPropertyOp40
 70
     1
102
RTVSPropertyOp41
 70
     1
102
RTVSPropertyOp42
 70
     1
102
RTVSPropertyOp43
 70
     1
102
RTVSPropertyOp44
 70
     1
102
RTVSPropertyOp45
 70
     1
102
RTVSPropertyOp46
 70
     1
102
RTVSPropertyOp47
 70
     1
102
RTVSPropertyOp48
 70
     1
102
RTVSPropertyOp49
 70
     1
102
RTVSPropertyOp50
 70
     1
102
RTVSPropertyOp51
 70
     0
102
RTVSPropertyOp52
 70
     0
102
RTVSPropertyOp53
 70
     1
102
RTVSPropertyOp54
 70
     1
102
RTVSPropertyOp55
 70
     1
102
RTVSPropertyOp56
 70
     1
102
RTVSPropertyOp57
 70
     1
102
RTVSPost2010Prop28
280
     0
102
RTVSPost2010PropOp28
 70
     1
102
RTVSPost2010Prop29
280
     1
102
RTVSPost2010PropOp29
 70
     1
102
RTVSPost2010Prop30
280
     1
102
RTVSPost2010PropOp30
 70
     1
102
RTVSPost2010Prop31
280
     0
102
RTVSPost2010PropOp31
 70
     1
102
RTVSPost2010Prop32
280
     0
102
RTVSPost2010PropOp32
 70
     1
102
RTVSPost2010Prop33
280
     0
102
RTVSPost2010PropOp33
 70
     1
102
RTVSPost2010Prop34
280
     0
102
RTVSPost2010PropOp34
 70
     1
102
RTVSPost2010Prop35
280
     0
102
RTVSPost2010PropOp35
 70
     1
102
RTVSPost2010Prop36
280
     0
102
RTVSPost2010PropOp36
 70
     1
102
RTVSPost2010Prop37
 90
       50
102
RTVSPost2010PropOp37
 70
     1
102
RTVSPost2010Prop38
140
0.0
102
RTVSPost2010PropOp38
 70
     1
102
RTVSPost2010Prop39
140
1.0
102
RTVSPost2010PropOp39
 70
     1
102
RTVSPost2010Prop40
 90
        0
102
RTVSPost2010PropOp40
 70
     1
102
RTVSPost2010Prop41ColorIndex
 90
       18
102
RTVSPost2010Prop41ColorRGB
 90
        0
102
RTVSPost2010PropOp41
 70
     1
102
RTVSPost2010Prop42
 90
       50
102
RTVSPost2010PropOp42
 70
     1
102
RTVSPost2010Prop43
 90
        3
102
RTVSPost2010PropOp43
 70
     1
102
RTVSPost2010Prop44ColorIndex
 90
        5
102
RTVSPost2010Prop44ColorRGB
 90
      255
102
RTVSPost2010PropOp44
 70
     1
102
RTVSPost2010Prop45
280
     0
102
RTVSPost2010PropOp45
 70
     1
102
RTVSPost2010Prop46
 90
       50
102
RTVSPost2010PropOp46
 70
     1
102
RTVSPost2010Prop47
 90
       50
102
RTVSPost2010PropOp47
 70
     1
102
RTVSPost2010Prop48
 90
       50
102
RTVSPost2010PropOp48
 70
     1
102
RTVSPost2010Prop49
280
     0
102
RTVSPost2010PropOp49
 70
     1
102
RTVSPost2010Prop50
 90
       50
102
RTVSPost2010PropOp50
 70
     1
102
RTVSPost2010Prop51ColorIndex
 90
      256
102
RTVSPost2010Prop51ColorRGB
 90
-16777216
102
RTVSPost2010PropOp51
 70
     0
102
RTVSPost2010Prop52
140
1.0
102
RTVSPost2010PropOp52
 70
     0
102
RTVSPost2010Prop53
 90
        2
102
RTVSPost2010PropOp53
 70
     1
102
RTVSPost2010Prop54
  1
strokes_ogs.tif
102
RTVSPost2010PropOp54
 70
     1
102
RTVSPost2010Prop55
280
     0
102
RTVSPost2010PropOp55
 70
     1
102
RTVSPost2010Prop56
140
1.0
102
RTVSPost2010PropOp56
 70
     1
102
RTVSPost2010Prop57
140
1.0
102
RTVSPost2010PropOp57
 70
     1
  0
XRECORD
  5
16D
102
{ACAD_REACTORS
330
16C
102
}
330
16C
100
AcDbXrecord
280
     1
102
RTVSPropertyOp0
 70
     1
102
RTVSPropertyOp1
 70
     1
102
RTVSPropertyOp2
 70
     1
102
RTVSPropertyOp3
 70
     1
102
RTVSPropertyOp4
 70
     1
102
RTVSPropertyOp5
 70
     1
102
RTVSPropertyOp6
 70
     1
102
RTVSPropertyOp7
 70
     1
102
RTVSPropertyOp8
 70
     1
102
RTVSPropertyOp9
 70
     1
102
RTVSPropertyOp10
 70
     1
102
RTVSPropertyOp11
 70
     1
102
RTVSPropertyOp12
 70
     1
102
RTVSPropertyOp13
 70
     1
102
RTVSPropertyOp14
 70
     1
102
RTVSPropertyOp15
 70
     1
102
RTVSPropertyOp16
 70
     1
102
RTVSPropertyOp17
 70
     1
102
RTVSPropertyOp18
 70
     1
102
RTVSPropertyOp19
 70
     1
102
RTVSPropertyOp20
 70
     1
102
RTVSPropertyOp21
 70
     1
102
RTVSPropertyOp22
 70
     1
102
RTVSPropertyOp23
 70
     1
102
RTVSPropertyOp24
 70
     1
102
RTVSPropertyOp25
 70
     1
102
RTVSPropertyOp26
 70
     1
102
RTVSPropertyOp27
 70
     1
102
RTVSPropertyOp28
 70
     1
102
RTVSPropertyOp29
 70
     1
102
RTVSPropertyOp30
 70
     1
102
RTVSPropertyOp31
 70
     1
102
RTVSPropertyOp32
 70
     1
102
RTVSPropertyOp33
 70
     1
102
RTVSPropertyOp34
 70
     1
102
RTVSPropertyOp35
 70
     1
102
RTVSPropertyOp36
 70
     1
102
RTVSPropertyOp37
 70
     1
102
RTVSPropertyOp38
 70
     1
102
RTVSPropertyOp39
 70
     1
102
RTVSPropertyOp40
 70
     1
102
RTVSPropertyOp41
 70
     1
102
RTVSPropertyOp42
 70
     1
102
RTVSPropertyOp43
 70
     1
102
RTVSPropertyOp44
 70
     1
102
RTVSPropertyOp45
 70
     1
102
RTVSPropertyOp46
 70
     1
102
RTVSPropertyOp47
 70
     1
102
RTVSPropertyOp48
 70
     1
102
RTVSPropertyOp49
 70
     1
102
RTVSPropertyOp50
 70
     1
102
RTVSPropertyOp51
 70
     0
102
RTVSPropertyOp52
 70
     0
102
RTVSPropertyOp53
 70
     1
102
RTVSPropertyOp54
 70
     1
102
RTVSPropertyOp55
 70
     1
102
RTVSPropertyOp56
 70
     1
102
RTVSPropertyOp57
 70
     1
102
RTVSPost2010Prop28
280
     0
102
RTVSPost2010PropOp28
 70
     1
102
RTVSPost2010Prop29
280
     1
102
RTVSPost2010PropOp29
 70
     1
102
RTVSPost2010Prop30
280
     1
102
RTVSPost2010PropOp30
 70
     1
102
RTVSPost2010Prop31
280
     0
102
RTVSPost2010PropOp31
 70
     1
102
RTVSPost2010Prop32
280
     0
102
RTVSPost2010PropOp32
 70
     1
102
RTVSPost2010Prop33
280
     0
102
RTVSPost2010PropOp33
 70
     1
102
RTVSPost2010Prop34
280
     0
102
RTVSPost2010PropOp34
 70
     1
102
RTVSPost2010Prop35
280
     0
102
RTVSPost2010PropOp35
 70
     1
102
RTVSPost2010Prop36
280
     0
102
RTVSPost2010PropOp36
 70
     1
102
RTVSPost2010Prop37
 90
       50
102
RTVSPost2010PropOp37
 70
     1
102
RTVSPost2010Prop38
140
0.0
102
RTVSPost2010PropOp38
 70
     1
102
RTVSPost2010Prop39
140
1.0
102
RTVSPost2010PropOp39
 70
     1
102
RTVSPost2010Prop40
 90
        0
102
RTVSPost2010PropOp40
 70
     1
102
RTVSPost2010Prop41ColorIndex
 90
       18
102
RTVSPost2010Prop41ColorRGB
 90
        0
102
RTVSPost2010PropOp41
 70
     1
102
RTVSPost2010Prop42
 90
       50
102
RTVSPost2010PropOp42
 70
     1
102
RTVSPost2010Prop43
 90
        3
102
RTVSPost2010PropOp43
 70
     1
102
RTVSPost2010Prop44ColorIndex
 90
        5
102
RTVSPost2010Prop44ColorRGB
 90
      255
102
RTVSPost2010PropOp44
 70
     1
102
RTVSPost2010Prop45
280
     0
102
RTVSPost2010PropOp45
 70
     1
102
RTVSPost2010Prop46
 90
       50
102
RTVSPost2010PropOp46
 70
     1
102
RTVSPost2010Prop47
 90
       50
102
RTVSPost2010PropOp47
 70
     1
102
RTVSPost2010Prop48
 90
       50
102
RTVSPost2010PropOp48
 70
     1
102
RTVSPost2010Prop49
280
     0
102
RTVSPost2010PropOp49
 70
     1
102
RTVSPost2010Prop50
 90
       50
102
RTVSPost2010PropOp50
 70
     1
102
RTVSPost2010Prop51ColorIndex
 90
      256
102
RTVSPost2010Prop51ColorRGB
 90
-16777216
102
RTVSPost2010PropOp51
 70
     0
102
RTVSPost2010Prop52
140
1.0
102
RTVSPost2010PropOp52
 70
     0
102
RTVSPost2010Prop53
 90
        2
102
RTVSPost2010PropOp53
 70
     1
102
RTVSPost2010Prop54
  1
strokes_ogs.tif
102
RTVSPost2010PropOp54
 70
     1
102
RTVSPost2010Prop55
280
     0
102
RTVSPost2010PropOp55
 70
     1
102
RTVSPost2010Prop56
140
1.0
102
RTVSPost2010PropOp56
 70
     1
102
RTVSPost2010Prop57
140
1.0
102
RTVSPost2010PropOp57
 70
     1
  0
ENDSEC
  0
EOF
